Cifra Club

Mas que palabras

Frankie J

Cifrado: Principal (guitarra y guitarra eléctrica)
tono: Em
E|-3---3-x----3-x---3-x--3-3---3-x--3-3---3-x--0h2-3|
B|-3---3-x-3--3-x-3-3-x--3-3-1-3-x--3-3-3-3-x-------|
G|-0---0-x----0-x---0-x--------0-x--------0-x-------|
D|-0------------------------------------------------|
A|-2--------2-----3----------3----------3-----------|
E|-3------------------------------------------------|

E|----3-x----3-x----3-x--3-3----3-x--3-3---3-x--2-3|
B|----3-x--3-3-x--3-3-x--3-3--1-3-x--3-3-3-3-x-----|
G|----0-x----0-x----0-x---------0-x--------0-x-----|
D|-------------------------------------------------|
A|-3-------2------3-----------3----------3---------|
E|-2-----------------------------------------------|

E|----3-x----3-x----3-x--3-3----3-x--3-3---3-x--2-3|
B|----3-x--3-3-x--3-3-x--3-3--1-3-x--3-3-3-3-x-----|
G|----0-x----0-x----0-x---------0-x--------0-x-----|
D|-------------------------------------------------|
A|-3-------2------3-----------3----------3---------|
E|-2-----------------------------------------------|

E|----3-x----3-x----3-x--3-3----3-x--3-3---3-x--2-3|
B|----3-x--3-3-x--3-3-x--3-3--1-3-x--3-3-3-3-x-----|
G|----0-x----0-x----0-x---------0-x--------0-x-----|
D|-------------------------------------------------|
A|-3-------2------3-----------3----------3---------|
E|-2-----------------------------------------------|

E|---0---0---3--3-3--0h2--2h3----3-x----2-x-------|
B|---------1----3-3--3----3------3-x----3-x-------|
G|-0---0-------------------------0-x----0-x-------|
D|------------------------------------------------|
A|-2---2---3-------------------2------0-----------|
E|-----------------------------3------2-----------|

E|---0---0---3--3-3-2--2-2----1-1-1-1-1p0---0-----|
B|-0---0---1----3-3-3--3-3----1-1-1-1-1---1-1-----|
G|------------------------------------------------|
D|------------------------------------------------|
A|-2---2---3--------------------------------------|
E|------------------------------------------------|

E|-3-3-------3---------------------0-----2--------|
B|-3---4-------3-----------------0---0---3--------|
G|-0-----0--0----0---------------0-------2--------|
D|-0-------------------------2---0-------0--------|
A|-2---------------------2-2-3-0-3-------0--------|
E|-3----------------3-2--3-3---2-2----------------|

E|---3-x-----3-x-----3-x----3-x----0-----0-----2---1-------0------|
B|---3-x---3-3-x---3-3-x--3-3-x--3-1-3-3-1---3-3-1-0-1-1-1-1-1-1-1|
G|---0-x-----0-x-----0-x----0-x--4---4-4---4-4---0---0-0-0---0-0-0|
D|-----------------------------------------5----------------------|
A|-2-------2-------3------3---------------------------------------|
E|-3--------------------------------------------------------------|

E|-3--3-3--0h2--2-2-2-3-----3-x----3-x----3-x-----3-x----0-----0---|
B|-3--3-3--3----3-3-3-3-3---3-x--3-3-x--3-3-x---3-3-x--3-1-3-3-1---|
G|--------------------------0-x----0-x----0-x-----0-x--4---4-4-----|
D|-----------------------------------------------------------------|
A|------------------------2------2------3-------3------------------|
E|------------------------3----------------------------------------|

E|-----2---0--------0-------3-3-3-0h2-|
B|---3-3-1-1--1-1-1-1-1-1-1-3-3-3-3---|
G|-4-4---0----0-0-0---0-0-0-----------|
D|-5----------------------------------|
A|------------------------------------|
E|-------------------------------------|
00:00 / 00:00
Otros videos de esta canción
Repetir
Otros videos de esta canción
Composición de Placer Seguro
    • ½ Tono
    • Am
    • Bbm
    • Bm
    • Cm
    • C#m
    • Dm
    • Ebm
    • Em
    • Fm
    • F#m
    • Gm
    • G#m
  • Agregar a la lista

    0 comentarios

    Ver todos los comentarios

    ¿Lograste tocar?

    0 Tocaron 0 Aún no

    ¡Graba un video tocando Mas que palabras y envíanoslo!

    00:00 / 00:00
    OK