Cifra Club

Volar

Frankie J

Cifrado: Principal (guitarra y guitarra eléctrica)
tono: E
INTRO:

E|----0----2---------0----2---------------0---2----------|
B|--0------4-------0------4--5-----4----0---1-4----------|
G|------1--4-----------1--4----4-----4--------4----------|
D|---------4--------------4------4------------4----------|
A|--0------2--2----0------2-------------0-----2-2-2h4-4-2|
E|---------2----0---------2-------------------2----------|

                       Cm
E|--0--0---2-----0---0-----|
B|--0------4------0---0----|
G|--2----1-4-------1-------|
D|--2------4---------------|
A|--0------2---------------|
E|--0------2--0------------|

 Cm           A                     B
Tanta desesperación, habita en mi interior
                                               Cm
mientras trato de olvidar que estoy tan lejos hoy de ti

                   A                        B
Tu mensaje en mi buzón, que me habla de tu amor
                    Cm                 A
es lo único en el mundo que me hace sonreír
                     Cm          A
y al ver tu foto me ayuda a sobrevivir  ( a sobrevivir)
             B
esta soledaaaaaaaaaadddddddddd

           Cm            A
Quisiera volar (quisiera volar)
       E                        B
para prenderme de tus besos y llenarme de tu amor
           Cm           A
Quisiera volar   (quisiera volar)
      E                        B
no aguanto este fuego que me quema de pasión
          Cm
Quisiera volar

Puente: Cm  A  B  Cm




  Cm             A
No me quiero imaginar
                   B
ni un momento más así
      Cm
necesitándote añorándote babyyyyyyyyy


Tu mensaje..................



        riff
E|-6h8-6----------------|
B|-------8h9-8----------|
G|-------------7h8-9----|
D|----------------------|



Final

E|--4--4-----4------4----|
B|--5----5-----5----5----|
G|--6------6-----6--6----|
D|--6---------------6----|
A|--4---------------4----|
E|--4---------------4----|
00:00 / 00:00
Otros videos de esta canción
Repetir
Otros videos de esta canción
Composición de A.Quinn / Happy Perez
    • ½ Tono
    • A
    • Bb
    • B
    • C
    • Db
    • D
    • Eb
    • E
    • F
    • F#
    • G
    • Ab
  • Agregar a la lista

    0 comentarios

    Ver todos los comentarios

    ¿Lograste tocar?

    0 Tocaron 0 Aún no

    ¡Graba un video tocando Volar y envíanoslo!

    00:00 / 00:00
    OK