Cifra Club

La Rueda

Frankie Ruiz

Cifrado: Principal (guitarra y guitarra eléctrica)
Selo Cifra Club: esta cifra foi revisada para atender aos critérios oficiais da nossa Equipe de Qualidade.
tono: C
E|------------------------------|
B|------------------------------|
G|-----5-----3--0---5-----3--5--| x2
D|------------------------------|
A|--3------------3--------------|
E|------------------------------|

E|-------------------------------------------------------------------------------------|
B|------------------------------------------------------------1--3--3/5-----5-----3--1-|
G|--0h2-----------------2--0-0---0-0-0---3--3-----3--3--2------------------------------|
D|-------3--0---------0----------------------------------------------------------------|
A|-------------2----2------------------------------------------------------------------|
E|-------------------------------------------------------------------------------------|

[Verse 1]
           C                  G
Tú eres la rueda, yo soy el camino
        G                 C
Pasas encima de mí dando vueltas
       C7                      F
Tú rodaras porque ese es tu destino
          D                  G7
Sin encontrar nadie que te detenga.
        C                    G
Quise pararte pero ibas sin frenos
        G                    C
Y tus rodadas me hicieron pedazos
           C7                  F
Porque no quieres los caminos buenos
           C          G7         C
Y agarras todo lo que hay en tus pasos.

[Intro Riff]

E|------------------------------|
B|------------------------------|
G|-----5-----3--0---5-----3--5--| x2
D|------------------------------|
A|--3------------3--------------|
E|------------------------------|

E|-------------------------------------------------------------------------------------|
B|------------------------------------------------------------1--3--3/5-----5-----3--1-|
G|--0h2-----------------2--0-0---0-0-0---3--3-----3--3--2------------------------------|
D|-------3--0---------0----------------------------------------------------------------|
A|-------------2----2------------------------------------------------------------------|
E|-------------------------------------------------------------------------------------|

[Verse 2]
         C                  G
Yo que soñaba, con ser en tu vida
        G                      C
El terminar de tus vueltas al mundo
         C7               F
Te vi pasar como nave perdida
           D                   G7
De aquí pa'lla sin agarrar tu mundo.
         C                  G
Ninguna rueda me había lastimado
        G                 C
Y me pasaron de las más pesadas
        C7                F
Pero contigo quede destrozado
            C        G7      C
Porque no hiciste ninguna parada.

[Interlude Riff]

E|--------------------------------------------------------------------0-0---0-0-|
B|--------------------------------------------------------------------1-1---1-1-|
G|--0h2-----2--5----4---4--0------------------------2--5----4-4--0----0-0---0-0-|
D|-------3-----------------------0-2-0--------0--3--------------------2-2---2-2-|
A|-------------------------------------4------------------------------3-3---3-3-|
E|--------------------------------------------------------------------0-0---0-0-|

E|------------------------------------------------------------------|
B|---------------------------------------------------------------5--|
G|--0h2-----2--5----4---4--0------------------------2--5----4-4-----|
D|-------3-----------------------0-2-0--------0--3------------------|
A|-------------------------------------4----------------------------|
E|------------------------------------------------------------------|

[Soneo/Improvisation/Choruses]

F               C
Yo que te tenía siempre a mi lado
     G                  C
Y el día menos pensado, tú te me fuiste de mi lado.

     F               C
Pero ay! Qué barbaridad,
            G                C
Y yo sin moverme del mismo lugar.

           F                      C
Ninguna mujer, a mí me había lastimado
         G               C
Pero contigo, yo quede, destrozado.

     F               C
Pero ay! Qué barbaridad,
            G                C
Y yo sin moverme del mismo lugar.

         F                 C
Yo que soñaba con ser en tu vida
        G             C
El terminar de tus vueltas al mundo te vi pasar como nave perdida.

     F               C
Pero ay! Qué barbaridad,
            G                C
Y yo sin moverme del mismo lugar.

        F                    C
Quise pararte pero no me escuchabas
              G                        C
Tú te querías ir con él, y de mi lado tú te alejabas.

     F               C
Pero ay! Qué barbaridad,
            G                C
Y yo sin moverme del mismo lugar.

[Outro Riff]

E|------------------------------|
B|------------------------------|
G|-----5-----3--0---5-----3--5--| x2
D|------------------------------|
A|--3------------3--------------|
E|------------------------------|

E|-------------------------------------------------------------------------------------|
B|------------------------------------------------------------1--3--3/5-----5-----3--1-|
G|--0h2-----------------2--0-0---0-0-0---3--3-----3--3--2------------------------------|
D|-------3--0---------0----------------------------------------------------------------|
A|-------------2----2------------------------------------------------------------------|
E|-------------------------------------------------------------------------------------|

[End]
C
Otros videos de esta canción
    251 exhibiciones
      • ½ Tono
      • A
      • Bb
      • B
      • C
      • Db
      • D
      • Eb
      • E
      • F
      • F#
      • G
      • Ab
    • Agregar a la lista

    Afinação da cifra

    Afinador online

      Ops (: Contenido disponible solo en portugués.
      OK