Cifra Club

Evil And A Heathen

Franz Ferdinand

Tab de bajo: Principal
Intro
G|-----------------|
D|-----------------|
A|-----------------|
E|-2-2-2-2-2-2-2-2-|x2

Riff (play through out entire song except bridge)
G|-------------------|
D|-------------------|
A|-------------------|
E|-5-5--4-4--2-2-2-2-|x26

Bridge (unclear, but my best interpitation)
G|------------------------------------|                    |---------|
D|-3-3-3-3-----------5-5-5-5----------|                    |---------|
A|------------------------------------|                    |---------|
E|----------5-5-5-5-----------4-4-4-4-|x2  end bridge with |-2-2-2-2-|

Riff x15

End with
G|-------------|
D|-------------|
A|-------------|
E|-5-5--4-4--2-|
00:00 / 00:00
Otros videos de esta canción
Repetir
Otros videos de esta canción
Compositor no encontrado.
105 exhibiciones
00:00 / 00:00
OK