Cifra Club

Michael

Franz Ferdinand

Cifrado: Principal (guitarra y guitarra eléctrica)
tono: F#
INTRO  (G. Solo)
|--------------------------------------|
|--------------------------------------|
|--------------------------------------|
|---4-4-4-6-6-6-7-7--4-4-4-6-6-6-7-7---|
|--------------------------------------|
|--------------------------------------|

|--------------------------------------|
|--------------------------------------|
|--------------------------------------|
|--------------------------------------|
|---4-4-4-7-7-7 4-4-4-4-4-4-4----------|
|-----------------------------7-5------|

|--------------------------------------|
|--------------------------------------|
|--------------------------------------|
|---4-4-4-6-6-6-7-7--4-4-4-6-6-6-7-7---|
|--------------------------------------|
|--------------------------------------|

|--------------------------------------|
|--------------------------------------|
|--------------------------------------|
|--------------------------------------|
|---7-7-7-6-6-6-4-4-4-4-4-4-4-4--------|
|-------------------------------7-5----|

|--------------------------------------------------|
|--------------------------------------------------|
|-----------------6-6-------9-9-9-9-8-6(11)11-11-11|
|4-4-4-6-6-6-7-7-----4-4-6-7-----------------------|
|--------------------------------------------------|
|--------------------------------------------------|
(2x)
|-------------------------------------------------| 
|-------------------------------------------------|
|-------------------------------------------------|
|-------------------------------------------------|
|-------------------------------------------------|
|2-2-2-2-2-2-2-4-4-4-4-4-4-0-0-0-0-0-0-2-2-2-2-2-2|

BASE
|---2--2---4--4---0--0---2--2-2---------|
|---2--2---4--4---0--0---2--2-2---------|
|---2--2---5--5---1--1---2--2-2---------|
|---------------------------------------|
|---------------------------------------|

PRÉ-REFRÃO (G. Sólo)
|-------------------------------------------------| 
|-------------------------------------------------|
|-------------------------------------------------|
|-------------------------------------------------|
|-------------------------------------------------|
|2-2-2-2-2-2-4-4-4-4-4-4-4-0-0-0-0-0-0-0-0-0-0-0-0|

REFRÃO (G. Base)
|-------------------------------------------------|
|-------------------------------------------------|
|---6-6-6-6-6-6-----------------------------------|
|---6-6-6-6-6-6--2-2-2-2-2-2-2--4-4-4-4-4-4-4-----|
|---4-4-4-4-4-4--2-2-2-2-2-2-2--4-4-4-4-4-4-4-----|
|----------------0-0-0-0-0-0-0--2-2-2-2-2-2-2-----|

REFRÃO (G. Solo)
|-------------------------------------------------|
|-------------------------------------------------|
|--10-(11)-10---10-(11)-10------------------------|
|-----------------------------9-9-9-9-9-9-r9------|
|-------------------------------------------------|
|-------------------------------------------------|

(G. Sólo) ---> acompanhando a G. Base
|-----------------------------------------|
|-----------------------------------------|
|---1---1-1-------------------------------|
|---2---2-2-------------------------------|
|---2---2-2-------------------------------|
|---0---0-0-------------------------------|

(G.Sólo)  -- Após o 2o refrão
|-------------------------------------------------|
|-------------------------------------------------|
|-------------------------------------------------|
|4-4-4-4-4-4-6-6-6-6-6-6-6-7-7-7-7-7-7-7-9-9-9-9-9|
|-------------------------------------------------|
|-------------------------------------------------|

(G. Base) ---> Após o 2o refrão
|------------------------------------------|
|------------------------------------------|
|---4-4-4-4-4-4-4-4-4-4-4-4-4-4-4----------|
|------------------------------------------|
|------------------------------------------|
|------------------------------------------|

LETRA:
This is where I’ll be
so heavenly
so come and dance with me Michael

So sexy, you’re sexy
come and dance with me Michael
I’m all that you see, you want to see
come and dance with me Michael

so close now so close now
come and dance with me
come and dance with me
So come and dance with me

Michael you’re the boy with all the leather hips
Sticky hair, stickyhips, stubble on my sticky libs
Michael you’re the only one I’d ever want
only one I’d ever want only one I’d ever want
Beautiful boys on a beautiful dance-floor
Michael you’re dancing like a beautiful dance-whore
and nothing matters now

This is what I am, I am a man
come and dance with me Michael
so strong now, it’s strong now
come and dance with me Michael

So close now. You’re close now.
Come and dance with me. Comeanddancewithme.
So come and dance with me

Michael you’re the boy with all the leather hips
Sticky hair. Sticky lips. Stubble on my sticky hips.
Beautiful boys on a beautiful dance-floor
Michael you;re dancing like a beautiful dance-whore
Michael waiting on a silver platter now
And notihng matters now
00:00 / 00:00
Otros videos de esta canción
Repetir
Otros videos de esta canción
Composición de Alex Kapranos / Nick McCarthy
Colaboración y revisión:
  • Josias Mueller
233 exhibiciones
    • ½ Tono
    • A
    • Bb
    • B
    • C
    • Db
    • D
    • Eb
    • E
    • F
    • F#
    • G
    • Ab
  • Agregar a la lista
    00:00 / 00:00
    OK