Cifra Club

No You Girls

Franz Ferdinand

Cifrado: Principal (guitarra y guitarra eléctrica)
tono: G
[Intro]

E|-----------|----------|---------|
B|-----------|----------|---------|
G|-12-10-12--|-10-9-10--|-9-7-9---|
D|-----------|----------|---------|
A|-----------|----------|---------|
E|-----------|----------|---------|

Gm
Oh, kiss me

Lick your cigarette then kiss me
                             Em
Kiss me where your eye won't meet me
                              Gm
Meet me where your mind won't kiss me

Lick your eyes and mind and then hit me
                         Em
Hit me with your eyes so sweetly

Oh, you know, you know, you know
C7                        D
That, yes, I love, I mean I
                             Gm
I'd love to get to know you
Cm              Gm
   Do you never wonder?
Cm
No, no, no

E|-------------------|-------------------|
B|-------------------|-------------------|
G|o-2h3p2------------|-2h3p2------------o|
D|--------5-x-3-5-5--|--------5-x-3-5-5--|
A|o------------------|------------------o|
E|-------------------|-------------------|

E|-------------------|-------------------|
B|-------------------|-------------------|
G|--2h3p2---2h3------|-2h3p2---2h3-------|
D|--------5-----2-2--|-------5-----2-2---|
A|-------------------|-------------------|
E|-------------------|-------------------|

E|-3-3---3-3-|-3-3---3-3-|-3-3---3-3-|-3-3---3-3-|-3-3---3-3-|-3-3---3-3-|
B|-3-3---3-3-|-3-3---3-3-|-3-3---3-3-|-3-3---3-3-|-5-5---5-5-|-5-5---5-5-|
G|-----------|-----------|-----------|-----------|-----------|-----------|
D|-----------|-----------|-----------|-----------|-----------|-----------|
A|-----------|-----------|-----------|-----------|-----------|-----------|
E|-----------|-----------|-----------|-----------|-----------|-----------| 

E|-3-3---3-3-|-3-3---3-3-|-3-3---3-3-|-3-3---3-3-|-3-3---3-3-|-3-3---3-3-|
B|-3-3---3-3-|-3-3---3-3-|-3-3---3-3-|-3-3---3-3-|-5-5---5-5-|-5-5---5-5-|
G|-----------|-----------|-----------|-----------|-----------|-----------|
D|-----------|-----------|-----------|-----------|-----------|-----------|
A|-----------|-----------|-----------|-----------|-----------|-----------|
E|-----------|-----------|-----------|-----------|-----------|-----------| 

E|-3-3-3-3-3-3-3-3-|-5\--------|
B|-5-5-5-5-5-5-5-5-|-7\--------|
G|-3-3-3-3-3-3-3-3-|-5\--------|
D|-----------------|-----------|
A|-----------------|-----------|
E|-----------------|-----------|

E|-----------------|
B|-----------------|
G|o-3----2--------o|
D|-------------5---|
A|o---------------o|
E|-----------------|

E|-3-3-3-3-3-3-3-3-|-3-3-3-3-3-3-3-3-|
B|-3-3-3-3-3-3-3-3-|-5-5-5-5-5-5-5-5-|
G|o----------------|----------------o|
D|-----------------|-----------------|
A|o----------------|----------------o|
E|-----------------|-----------------|

      Gm
No no no you girls never know
Oh no you girls'll never know
No you girls never know

Csus4 C       A#           Gm
      How you make a boy feel
E|-----------------|
B|-----------------|
G|-----------------|
D|--3--2--0--------|
A|-----------3-1---|
E|-----------------|

You girls never know
Oh no, you girls'll never know
No you girls never know
C C          A# A#       Gm
    How you make a boy feel
C C          A#
    How you make a boy

E|-----------------|
B|-----------------|
G|o-2h3-----------o|
D|------5-x-3-5-5--|
A|o---------------o|
E|-----------------|

      Gm
No no no you girls never know
Oh no you girls'll never know
No you girls never know

Csus4 C       A#           Gm
      How you make a boy feel
E|-----------------|
B|-----------------|
G|-----------------|
D|--3--2--0--------|
A|-----------3-1---|
E|-----------------|

You girls never know
Oh no, you girls'll never know
No you girls never know

C         A#         Gm
  How you make a boy feel
E|-----------------|
B|-----------------|
G|-----------------|
D|--3--2--0--------|
A|-----------3-1---|
E|-----------------|

C         A#         Gm
  How you make a boy feel
E|-----------------|
B|-----------------|
G|-----------------|
D|--3--2--0--------|
A|-----------3-1---|
E|-----------------|
C C          A# A#
    How you make a boy

Em                     F#m
Sometimes I say stupid things
      Bm
That I think weell, I mean I
C
Sometimes I think the stupidest things

[Final] Gm 
00:00 / 00:00
Otros videos de esta canción
Repetir
Otros videos de esta canción
Composición de Franz Ferdinand
Colaboración y revisión:
  • FTWl iFkY34H
  • Gustavo Cintra
1.226 exhibiciones
    • ½ Tono
    • A
    • Bb
    • B
    • C
    • Db
    • D
    • Eb
    • E
    • F
    • F#
    • G
    • Ab
  • Agregar a la lista
    00:00 / 00:00
    OK