Cifra Club

Sem Você Aqui

Fred & Gustavo

Acordes: Principal
reproducciones 27
Tono: F (con acordes en la forma de D) Capo en 3ª casa
Intro: D D4 D D9

D             D4                  Em
Foram os melhores dias da minha vida
        A                                       D
Você e eu éramos como letra e melodia da mais linda canção de amor
                                     Em7 A
mais um dia, quando eu voltei pra casa

Você já não estava mais ali

D
Quando você foi embora
              D7+
Eu não via a hora de te ver voltar
 D7                         G
Trazendo a alegria que existia um dia aqui nesse lugar
    Em7
Que apesar de abandonado
            Bm
Tudo aqui é seu e pra sempre será
F              A                D
Coração tá esperando só você voltar

(Refrão)

D                                       Em
Só quem conhece a saudade sabe o gosto amargo que a solidão
G                                          A
Deixa lá dentro do peito destruindo os sonhos, planos e paixão
D
As lembranças me atormentam,
               Em
Minha própria mente insiste em me trair
G
Revivendo os bons momentos
              A
Tudo é mais difícil sem você aqui

Base: D Em G A


E|-----8------5-5---8--8-----5-5----10-10-----6-6----10-10----------------------|
B|-----10-----6-6---10-10----6-6----11-11-----8-8----11-11----------------------|
G|------------------------------------------------------------------------------|
D|------------------------------------------------------------------------------|
A|------------------------------------------------------------------------------|
E|------------------------------------------------------------------------------|


E|------------------------------------------------------------------------------|
B|-------------------13-13h15-13----13h15-13------------------------------------|
G|-12-14-14/15-14-15-------------15------------15-14-12-------------------------|
D|------------------------------------------------------15-14-12-10-------------|
A|------------------------------------------------------------------------------|
E|------------------------------------------------------------------------------|


D
Quando você foi embora
              D7+
Eu não via a hora de te ver voltar
 D7                         G
Trazendo a alegria que existia um dia aqui nesse lugar
    Em7
Que apesar de abandonado
            Bm
Tudo aqui é seu e pra sempre será
F              A                D
Coração tá esperando só você voltar

(Refrão)

D                                       Em
Só quem conhece a saudade sabe o gosto amargo que a solidão
G                                          A
Deixa lá dentro do peito destruindo os sonhos, planos e paixão
D
As lembranças me atormentam,
               Em
Minha própria mente insiste em me trair
G
Revivendo os bons momentos
              A
Tudo é mais difícil sem você aqui

Solo final: D Em G A D


E|-----8------5-5---8--8-----5-5----10-10-----6-6----10-10----------------------------|
B|-----10-----6-6---10-10----6-6----11-11-----8-8----11-11----------------------------|
G|------------------------------------------------------------------------------------|
D|------------------------------------------------------------------------------------|
A|------------------------------------------------------------------------------------|
E|------------------------------------------------------------------------------------|


E|------------------------------------------------------------------------------------|
B|-------------------13-13h15-13----13h15-13------------------------------------------|
G|-12-14-14/15-14-15-------------15------------15-14-12-----------------12-------10---|
D|------------------------------------------------------15-14-12-10~-10----10h12------|
A|------------------------------------------------------------------------------------|
E|------------------------------------------------------------------------------------|
Acordes para:
    Colaboración y revision:
    • Cleberson Vosilk
    • Matheeus
    • João Branquinho

    0 comentarios

      mostrar mas comentarios

      ¿Conseguiste tocar?

      5tocaron0aún no

      ¡Grave un vídeo tocando Sem Você Aqui y envie para nosotros!

      00:00 / 00:00
      outros vídeos desta música
      repetirqualidadeautomática
      Outro vídeos desta música
        00:00 / 00:00
        automática
        OK