Cifra Club

Heavy Load

Free

Tab de bajo: Principal
Tabber: Drew Thomson (*)


Verse (0:15)
G|--7----------------------------------------------------------------------|
D|-------------------------------------------------------------------------|
A|----------5----5----5-5-----5---------5----5----5-5-----5----------------|
E|------------------------3---------------------------3--------------------|


Chorus (0:56)
G|------------------------5------------------------------------------------|
D|-3-3-2--------------3-3------7-------------------------------------------|
A|--------------5--------------------5-------------------------------------|
E|----------3-3------------------------------------------------------------|


Bridge (1:10) [Other instruments until (1:21)]
G|--9----------------------------------------------------------------------|
D|----10-------------------------------------------------------------------|
A|----------5--------------------------------------------------------------|
E|-------------------------------------------------------------------------|


Verse (1:32)
G|-------------------------------------------------------------------------|
D|-------------------------------------------------------------------------|
A|---5----5----5-------5---------5----5----5-5-----5-----------------------|
E|-----------------3---------------------------3---------------------------|


Chorus (2:04)
G|------------------------5------------------------------------------------|
D|-3-3-2--------------3-3------7-------------------------------------------|
A|--------------5--------------------5-------------------------------------|
E|----------3-3------------------------------------------------------------|


Instrumental (2:24)
G|--10/-7---7---9------------7--7--------7--7--------7--7--------7--7------|
D|-------------------------------------------------------------------------|
A|---------------------5--5--------5--5---------5--5--------5--5-----------|
E|-------------------------------------------------------------------------|

G|-------7--7-------7--7-------7--------------7--7-------7--7--------7--7--|
D|-------------------------------------------------------------------------|
A|--5--5-------5--5-------5--5-------5---5--5-------5--5--------5--5-------|
E|-------------------------------5-7---------------------------------------|

G|-------9--9-------7--7---------------------7--7--------------------------|
D|------------------------------------------------7------------------------|
A|--7--7-------5--5-----------7-----7---5--5--------5------7-----7---------|
E|-------------------------0-----0----------------------0-----0------------|

G|-------7--7--------------------------------------------------------------|
D|------------7------------------------------------------------------------|
A|--5--5--------5------7-----7-5-----------2-------------------------------|
E|------------------0-----0------8-7---0-------0---------------------------|

G|-----------------------------------------------14/--10-9-7-----9-7-------|
D|-------------------------------------------------------------------10----|
A|-------------------------------------------------------------------------|
E|-------------------------------------------------------------------------|


Outro (4:11)
G|------------------------5------------------------------------------------|
D|-3-3-2--------------3-3------7-------------------------------------------|
A|--------------5--------------------5-------------------------------------|
E|----------3-3------------------------------------------------------------|

G|------------------------5------------------------------------------------|
D|-3-3-2--------------3-3------7-------------------------------------------|
A|--------------5--------------------5-------------------------------------|
E|----------3-3------------------------------------------------------------|

G|------------------------5----------7-------------------------------------|
D|-3-3-2--------------3-3------7-------------------------------------------|
A|--------------5----------------------------------------------------------|
E|----------3-3------------------------------------------------------------|

G|------------------------5----------7-------------------------------------|
D|-3-3-2-2-------------3-------7-------------------------------------------|
A|---------------5-5-------------------------------------------------------|
E|-----------3-3-----------------------------------------------------------|


If you want any more tabs by this artist or you have any corrections for
this tab please e-mail me at * !
Composición de Andrew Fraser / Andy Fraser / Paul Rodgers
60 vistas

0 comentarios

Ver todos los comentarios

¿Lograste tocar?

0 Tocaron 0 Aún no

¡Graba un video tocando Heavy Load y envíanoslo!

00:00 / 00:00
Outros vídeos desta música
Repetir Calidad Automático
Outros vídeos desta música
00:00 / 00:00
Automático
OK