Cifra Club

Lovers Moon

Glenn Frey

Cifrado: Principal (guitarra y guitarra eléctrica)
tono: C
 Album: The Allnighter
 Track #: 5
 Transcribed by: Allan John G. Amisola
 E-mail add: *
 

 Mga p're, rate nyo nlng 'to plz. Try nyo pa iba kong tabs ha!!!


 Standard Tuning: EADGBe

 [Intro]
         There are two guitars playing in this song, 
              one does the rhythm and the other one do the riff below:

      G      Em      C      D       G       Em        C     D

 e|---7---8--7----8--7---5--3--2---------------------------------------------|
 B|---------------------------------8---10--8----10---8--7--5--3-------------|
 G|---7---7--7----7--7---5--3--2---------------------------------------------|
 D|---------------------------------9---9---9----9----9--8--6--4-------------| 
 A|--------------------------------------------------------------------------|
 E|--------------------------------------------------------------------------|


 [Verse]
 G          Em       C      D
  There's a lover's moon tonight
 
 G     Em         C        D
  As I look back over my shoulder

 G        Em          C      D
  All the stars are shining bright

 G               Em           C        D 
  Just like the nights when I used to hold her

 C                         D
  She's out there somewhere under the lover's moon

  ***tapos repeat ung intro once;***


 [Verse 2]
  ***do chord patterns; G-Em-C-D

  Lover's moon won't you shine on me

  I'm dancing with a memory

  Wish I may, I wish I might

  Have one last chance to hold her tight


 [Chorus]
  ***do chord patterns; G-Em-C-D

 And she's waiting, I know she's waiting

 I know she waits for me

 Under the lover's moon

 ***repeat ulit ung intro once lng;***


 [Verse 3]
  ***do chord patterns; G-Em-C-D

 There's a lover's moon tonight

 Shining down on half of this world 

 So many souls are in its light

 But for me there is just one girl


 [Outro]
   ***do chord patterns; G-Em-C-D

      
 e|---7---8--7----8--7---5--3--2---------------------------------------------|
 B|---------------------------------8---10--8----10---8--7--5--3-------------|
 G|---7---7--7----7--7---5--3--2---------------------------------------------|
 D|---------------------------------9---9---9----9----9--8--6--4-------------| 
 A|--------------------------------------------------------------------------|
 E|--------------------------------------------------------------------------|

 e|---------------------------------3--/5--5/7---7---8--7----8--7---5--3--2--------------------------------|
 B|--------------------------------------------------------------------------8--10--8----10---8--7--5--3---|
 G|---5/7--9--7---9--7--5--3--0--2--3--/5--5/7---7---7--7----7--7---5--3--2--------------------------------|
 D|--------------------------------------------------------------------------9--9---9----9----9--8--6--4---| 
 A|--------------------------------------------------------------------------------------------------------|
 E|--------------------------------------------------------------------------------------------------------|

   ***repeat until fade*** tapos na po!!!
Compositor não encontrado.
71 vistas
    • ½ Tono
    • A
    • Bb
    • B
    • C
    • Db
    • D
    • Eb
    • E
    • F
    • F#
    • G
    • Ab
  • Agregar a la lista

    0 comentarios

    Ver todos los comentarios

    ¿Lograste tocar?

    0 Tocaron 0 Aún no

    ¡Graba un video tocando Lovers Moon y envíanoslo!

    00:00 / 00:00
    Outros vídeos desta música
    Repetir Calidad Automático
    Outros vídeos desta música
    00:00 / 00:00
    Automático
    OK