Cifra Club

Reaction

From Ashes Rise

Cifrado: Principal (guitarra y guitarra eléctrica)
tono: F#
Riff 1
|--------------------------------------|--2----0---------|
|--------------------------------------|--3----0---------|
|--------------------------------------|--2----1---------|
|--------------------------------------|--0----2---------|
|-----4---5---4----2--------2----------|-------2---------|
|-2-2---2---2---2-----5-4-5---5----4-0-|-----------------|

Riff 2
|----------------|---------------------|------------|-----------------------|
|-------------5--|------5------3--2----|------------|-----------------------|
|-------------6--|------4------2--2----|-------2----|-------5^4^3-----------|
|-------------7--|------6------4--2----|----2--2----|------------5^4^3------|
|--------0000----|-0000----00---0------|----3--0----|-----------------5^4^3-|
|----------------|---------------------|-3b---------|-----------------------|

Chorus:

|-----------|-----------------|-----------|--------------------|--------------|
|-----------|----------HARM.--|-----------|*|--------------|
|-----------|-------7-----7---|-----------|-------7--7---------|-2------------|
|-4---4-----|-4-----7---7-----|-4---4-----|-4-----7----7-------|-2-----2------|
|-4-2-4-----|-4-----5---------|-4-2-4-----|-4-----5------------|-0-----2------|
|-2-0-2-----|-2-0-------------|-2-0-2-----|-2-0----------------|---4-2-0--2-4-|

fill 1
|------2-----------------------------------------------------|
|----2---5^2-3^2---2-----------------------------------------|
|-4^b------------5---5^2-4^2---------------------------------|
|----------------------------4^2-----------------------------|
|--------------------------------4^3^2^3^2---3^2^3^2^3^2-----|
|------------------------------------------5-------------5-2-|

fill2
|------------------------------------------------------------------------|
|----10-13^10--14^11--15^12--16^13--17^14--18^15--19^16--20^17-----------|
|-/11--------11-----12-----13-----14-----15-----16-----17-----18---------|
|------------------------------------------------------------------------|
|------------------------------------------------------------------------|
|------------------------------------------------------------------20----|

fill3
|--------------------------------16---------17---------18--------------|
|--------14-17^14----15-18^15------19^16------20^17------21^18-21^b~~~-|
|-16-16^b--------17^b--------18^b-------19^b-------20^b----------------|
|----------------------------------------------------------------------|
|----------------------------------------------------------------------|
|----------------------------------------------------------------------|

|---------------------|-------------------------------|-------------------|
|---------------------|-------------------------------|-------------------|
|-2-2-2---------------|--------------2----------------|-------------7--9--|
|-2-2-2-------2--4--6-|-4---4-4--6---2-------2--4--6--|--4---4-4-6--7--9--|
|-0-0-0-------2--4--6-|-4---4-4--6---0-------2--4--6--|--4---4-4-6--5--7--|
|--------4--2-0--2--4-|-2-0-2-2--4------4--2-0--2--4--|--2-0-2-2-4--------|

Interlude:
|--------------------|---------------|-----------------------------------|
|--------------------|---------------|-----------------------------------|
|--------------------|-7-7--9-9------|--7--9-----------------------------|
|-4-4--7-7--2-2--4-4-|-7-7--9-9--4-4-|--7--9-----------------------------|
|-4-4--7-7--2-2--4-4-|-5-5--7-7--4-4-|--5--7-----------------------------|
|-2-2--5-5--0-0--2-2-|-----------2-2-|-----------------------------------|

Solo:
------------------------------------------------------------------------------
-14^10^7^10^14^10^7^10^14^10^7^10^14^10^7^10^14^10^7^10^15^10^7^10^15^10^7^10^
------------------------------------------------------------------------------|
-t--p--p--h--t-p--p--h--t-p--p--h--t-p--p--h--t-p--p--h--t-p--p--h--t-p--p--h-|
------------------------------------------------------------------------------|
------------------------------------------------------------------------------|
                                                        ^

-----------------------------------------------------^------^------------------|
^15^10^7^10--9^12^9^12^9^12^9^12^97^10^7^10^7^10^7--|--10--|-------------------|
*|
--t-p--p--h-----h-p--h-p--h-p--h-p----h-p--h-p--h-p----------------------------|
-------------------------------------------------------------------------------|
-------------------------------------------------------------------------------|
             b:1                b:1
              ^                  ^
-17--16--14---|-----14--16--17--17------14--17^14-------14---------------------|
-------------17--------------------------------p---17------17--14--15^14-15^14-|
----------------------------------------------------------------------------p--|
-------------------------------------------------------------------------------|
-------------------------------------------------------------------------------|
-------------------------------------------------------------------------------|
                             ^
                           ^b:1^
-------------------------^-------^-----------------------14^17^14^17^14^17^14--|
-------------------------|--17---|-----------------14^17----h---p--h--p-h--p---|
17^14--16^14------------16------16^14--------14^16----h------------------------|
---p------p----16^14---------------p------------h------------------------------|
------------------p------------------------------------------------------------|
-------------------------------------------------------------------------------|


/16^19^16/17^21^17^21^17^21^17^21^17^21^1716^19^16^19^16^19^1614^17^14^17^--
sl---h-p sl-------------------------------------------------------------------|
------------------------------------------------------------------------------|
------------------------------------------------------------------------------|
------------------------------------------------------------------------------|
------------------------------------------------------------------------------|
                ^
          ^b:1^                           |--light P.*|
^14^17^14---^--17---^----------------------------------------------------------|
-----------17------17-----17--14-----------------------------------------------|
-----------------------------------16--14------14--------------14--------------|
-------------------------------------------16------16--14----------16--14------|
-----------------------------------------------------------16--------------16--|
-------------------------------------------------------------------------------|

------------------------------------------------------------14--17^16^14------|
---------------------------------------------------------17-------------------|
14--13^14^13----16-14^13-------16---------------14-16/18----------------------|
--------h--p-----------p----16------------14-16------sl-----------------------|
-------------------------------------14-16------------------------------------|
------------------------------------------------------------------------------|
               b:1   b:1
                ^     ^
19^17--19^17---19----19----|
----p------p---------------|
---------------------------|             play riff 1
---------------------------|
---------------------------|
---------------------------|
Composición de Bob Marley / From Ashes Rise
14 vistas
    • ½ Tono
    • A
    • Bb
    • B
    • C
    • Db
    • D
    • Eb
    • E
    • F
    • F#
    • G
    • Ab
  • Agregar a la lista

    0 comentarios

    Ver todos los comentarios

    ¿Lograste tocar?

    0 Tocaron 0 Aún no

    ¡Graba un video tocando Reaction y envíanoslo!

    00:00 / 00:00
    Outros vídeos desta música
    Repetir Calidad Automático
    Outros vídeos desta música
    00:00 / 00:00
    Automático
    OK