Cifra Club

Joe No 1

Fugazi

Tab de bajo: Principal
G-|----------------------------------------------------------|
D-|------------------------------------------------------3---|
A-|---------------------1--------------------------1---------|
E-|--3-3-5p3-1-3-3--3-1--3-3-5p3-1-3-3--3--------------------|

This is the chorus:
G-|----------------------------------------------------------------|
D-|----------------------------------------------------------------|
A-|--------3h5p3--------------------3h5p3--------------------------|
E-|--0-0----------5-5-3h5p3-0-0------------------------------------|

This is my first tab, and I've only been playing bass
for 6 months, so this tab might not be 100% correct.

Listen to the cd for rythm, etc.
Buy "Repeater" if you don't already own it!

Send questions or comments to: *
THANKS
00:00 / 00:00
Otros videos de esta canción
Repetir
Otros videos de esta canción
Compositor no encontrado.
7 exhibiciones
00:00 / 00:00
OK