Cifra Club

Life And Limb

Fugazi

Chords: Principal (acoustic and electric guitars)
tone: Ab
From the album The Argument (2001)

I'm pretty sure this is 100% correct, apart from one or 2 minor variations
to the main verse riff which I have omitted.

Questions/comments/corrections to cormacdaly AT gmail DOT com

Tuning:   Regular (EADGBE)
Notation: \  --  Slide down
          /  --  slide up
          p  --  pull-off
          h  --  hold note
         (4) --  ghost/optional note

Intro:
E--------0----|
B--------0----|
G--------1----|
D--------2----|
A--------2----|
E-12\0---0----|

[Wait for 2 measures...]

Verse 1 
 |=================x12================|
E--------------3-2-1-0---------3---3--|
B-------------------------------------|
G---1-1-3-1-0----------1-3-1-0---0----|
D-------------------------------------|
A-------------------------------------|
E-------------------------------------|

Chorus 1 
 |=================x4=================|
E-----4-----------4h----4-------------|
B-------5---8p5-------------8p5---5---|
G---6-----6-----6-----6---6-----6-----|
D-------------------------------------|
A-------------------------------------|
E-------------------------------------|

Verse 2
 |=================x4=================|
E--------------3-2-1-0---------3---3--|
B-------------------------------------|
G---1-1-3-1-0----------1-3-1-0---0----|
D-------------------------------------|
A-------------------------------------|
E-------------------------------------|


[Wait for 8 measures...]


Chorus 2 (this has 2 different guitar parts playing simultaneously)
        (guitar 1)
 |=================x4=================|
E--------------3-2-1-0---------3---3--|
B-------------------------------------|
G---1-1-3-1-0----------1-3-1-0---0----|
D-------------------------------------|
A-------------------------------------|
E-------------------------------------|
                                      |
        (guitar 2)                    |
E-----4-----------4h----4-------------|
B-------5---8p5-------------8p5---5---|
G---6-----6-----6-----6---6-----6-----|
D-------------------------------------|
A-------------------------------------|
E-------------------------------------|


Before the solo: 
        (both guitars for this bit...)
E-------0-------0-------0-------0-----|
B-----4---4---4---4---4---4---4---4---|
G---6-------6-------6-------6---------|
D-------------------------------------|
A-------------------------------------|
E-------------------------------------|

        (...and one guitar here)
E-----4-------------------------------|
B-------5---8p5-----------------------|
G---6-----6-----6--6------------------|
D-------------------------------------|
A-------------------------------------|
E-------------------------------------|


Solo
        (guitar 1)
E--------------7----------------------
B--------6-7-8----8-7-6------------10-
G---6-------------------6------6------
D------------------------7---7--7-----
A-------------------------------------
E-------------------------------------

E-------------7----7-8-8/9--12--9--12-
B-------6-7-8----8--------------------
G--6----------------------------------
D-------------------------------------
A-------------------------------------
E-------------------------------------

E-------------7---------------------5-
B-------6-7-8----8-7-6-------------(5)
G--6-------------------6-----6-----6--
D-----------------------7--7--7---7---
A-------------------------------------
E-------------------------------------

E----4---------5----4----0------------
B---(4)-------(5)--(4)--(0)-----------
G---5---------6----5----1-------------
D--6---------7----6----2--------------
A-------------------------------------
E-------------------------------------

        (guitar 2)
...


[Wait 2 measures]

Chorus 3 (same riffs as chorus 2)
 |=================x8=================|
E--------------3-2-1-0---------3---3--|
B-------------------------------------|
G---1-1-3-1-0----------1-3-1-0---0----|
D-------------------------------------|
A-------------------------------------|
E-------------------------------------|                                     
                                      |
        (guitar 2)                    |
E-----4-----------4h----4-------------|
B-------5---8p5-------------8p5---5---|
G---6-----6-----6-----6---6-----6-----|
D-------------------------------------|
A-------------------------------------|
E-------------------------------------|


Outro:
        (guitar 1)
 |=================x3=================|
E-----4------------------4------------|
B-------5---8p5--------------8p5---5--|
G---6-----6-----6-6---/6---6-----6----|
D-------------------------------------|
A-------------------------------------|
E-------------------------------------|

 |======x1==========|
E-----4-------------|
B-------5---8p5-----|
G---6-----6-----6-6-|
D-------------------|
A-------------------|
E-------------------|
00:00 / 00:00
Other videos of this song
Repeat
Other videos of this song
Composed by Fugazi
37 views
    • ½ Tone
    • A
    • Bb
    • B
    • C
    • Db
    • D
    • Eb
    • E
    • F
    • F#
    • G
    • Ab
  • Add to list
    00:00 / 00:00
    OK