Cifra Club

Promises

Fugazi

Cifrado: Principal (guitarra y guitarra eléctrica)
tono: D
This is my first tab. I'm only tabbing out the basic parts, if i get more time i'll tab 
the more intricate things.

PROMISES


Standard Tuning

Intro/Verse

|------------------------------------|
|------------------------------------|
|------------------------------------|
|------------------------------------|
|-9-9-12-9-9-12-9-9-12-9-9-9-12-12-8-|
|------------------------------------|
Not the right rhythem, but you can figure that out with the song. Notes are correct, though.

Chorus: Ian (More important, if you only have one guitarist always play Ian's part.)

|---------------------------|
|---------------------------|
|---------------------------|
|-4-4-4-4-4-x-x-x-7-7-7-7-6-|  x3 Then
|-4-4-4-4-4-x-x-x-7-7-7-7-6-|
|-2-2-2-2-2-x-x-x-5-5-5-5-4-|

|---------------------------|
|---------------------------|
|---------------------------|
|-4\\7//4\\7//4\\7//4\\7//4-|
|-4\\7//4\\7//4\\7//4\\7//4-|
|-2\\5//2\\5//2\\5//2\\5//2-|

Chorus: Guy

|----------------------------------|
|----------------------------------|
|----------------------------------|
|-11-11-11-11-x-x-x-14-14-14-14-13-|  x3 Then
|-9--9--9--9--x-x-x-12-12-12-12-11-|
|----------------------------------|
Feel free to spice these chords up. Guy does live. I personally like minor 7ths, but 
just me.

|-------------------------------|
|-------------------------------|
|-------------------------------|
|-------------------------------|
|-9\\12//9\\12//9\\12//9\\12//9-|
|-------------------------------|

Bridge:

|---------------|
|---------------|
|---------------|
|-4-4-4-2-2-6-6-|  Once again, Guy plays this an octave up.
|-4-4-4-2-2-6-6-|
|-2-2-2-0-0-4-4-|

Then,

|------------------------|
|------------------------|
|------------------------|
|------------------------| Guy plays this an octave up. Again. But this
|------------------------| part sounds really good with the octaves, now's
|-2---0-0-2-2h3p2~-0-0-0-| The time to pust out your octave pedal.

Followd by:

|---------------------------------|
|---------------------------------|
|---------------------------------|
|-------------------------7-------|
|-9-9-9-9-9-9-9-9-9-9-9-9---9-7-9-|
|---------------------------------|

Finally,

Outro: Ian

|---------------------------------|
|---------------------------------|
|---------------------------------|
|-4-4-4-4-6-6-6-6-7-7-7-7-9-9-9-9-|
|-4-4-4-4-6-6-6-6-7-7-7-7-9-9-9-9-|
|-2-2-2-2-4-4-4-4-5-5-5-5-7-7-7-7-|

Outro: Guy

|---------------------------------------------|
|---------------------------------------------|
|---------------------------------------------| Until last time through.
|---------------------------------------------|
|-9-9-9-9-11-11-11-11-12-12-12-12-14-14-14-14-|
|---------------------------------------------|

Last time through

|-14tp-16tp-17tp-22tp-|
|---------------------|
|---------------------|
|---------------------|
|---------------------|
|---------------------|

And Ian and guy end on

|---|
|---|
|---|
|-4-|
|-4-|
|-2-|
00:00 / 00:00
Otros videos de esta canción
Repetir
Otros videos de esta canción
Composición de Fugazi
68 exhibiciones
    • ½ Tono
    • A
    • Bb
    • B
    • C
    • Db
    • D
    • Eb
    • E
    • F
    • F#
    • G
    • Ab
  • Agregar a la lista
    00:00 / 00:00
    OK