Cifra Club

Shut The Door

Fugazi

Cifrado: Principal (guitarra y guitarra eléctrica)
tono: C
Tabbed by: whatdoiget000

Tuning: Standard
Intro guitar one-Ian
e|---------------------------------------------------------------------------|
B|---------------------------------------------------------------------------|
G|----99999999999999----(continue as guitar 2 comes in)----------------------|
D|---------------------------------------------------------------------------|
A|---------------------------------------------------------------------------|
E|---------------------------------------------------------------------------|
Intro-guitar 2-Guy
e|---------------------------------------------------------------------------|
B|---------------------------------------------------------------------------|
G|---------------------------------------------------------------------------|
D|---------------------------------------------------------------------------|
A|-------------------8888888888888888888-------------------------------------|
E|-------------------7777777777777777777-------------------------------------|

Pre-verse guitar 1-Ian
e|---------------------------------------------------------------------------|
B|---------------------------------------------------------------------------|
G|---12/14-x-7/999-7/9-------------------------------------------------------|
D|----x/-x-x-x/xxx-x/x-------------------------------------------------------|
A|---10/12-x-5/777-5/7-------------------------------------------------------|
E|---------------------------------------------------------------------------|
Pre-Verse guitar 2-Guy
e|---------------------------------------------------------------------------|
B|------------------------12+---------------------12+------------------------|
G|------------------------------alternate with-------12+---------------------|
D|------------------------------------------------------12+------------------|
A|---------------------------------------------------------------------------|
E|---------------------------------------------------------------------------|

Verse-guitar two only
e|-----12+-------------------------------------------------------------------|
B|---------------------------12+---------------------------------------------|
G|---------------------------------------------------------------------------|
D|---------------------------------------------------------------------------|
A|---------------------------------------------------------------------------|
E|---------------------------------------------------------------------------|

Prechorus-guitar 1-Ian
e|---------------------------------------------------------------------------|
B|-----------------------8b--------------------------------------------------|
G|---12/14-x-7/999-7/9---9b--------------------------------------------------|
D|----x/-x-x-x/xxx-x/x-------------------------------------------------------|
A|---10/12-x-5/777-5/7-------------------------------------------------------|
E|---------------------------------------------------------------------------|

Prechorus-guitar two-Guy
e|---------------------------------------------------------------------------|
B|---------------------------------------------------------------------------|
G|----------999999-----------------------------------------------------------|
D|----777777999999-----------------------------------------------------------|
A|----777777777777-----------------------------------------------------------|
E|----555555-----------------------------------------------------------------|

Chorus-both guitars
e|---------------------------------------------------------------------------|
B|---------------------------------------------------------------------------|
G|---------------------------------------------------------------------------|
D|---222224-444444--22222-4--------------------------------------------------|
A|---222224-444444--22222-4--------------------------------------------------|
E|---222224-444444--22222-4--------------------------------------------------|
            ++++++           "She's not breathing!"


| /  slide up
| \  slide down
| h  hammer-on
| p  pull-off
| ~  vibrato
| +  harmonic
| x  Mute note
============================================================================
00:00 / 00:00
Otros videos de esta canción
Repetir
Otros videos de esta canción
Compositor no encontrado.
60 exhibiciones
    • ½ Tono
    • A
    • Bb
    • B
    • C
    • Db
    • D
    • Eb
    • E
    • F
    • F#
    • G
    • Ab
  • Agregar a la lista
    00:00 / 00:00
    OK