Cifra Club

Loco

Fun Lovin Criminals

Cifrado: Principal (guitarra y guitarra eléctrica)
Selo Cifra Club: esta cifra foi revisada para atender aos critérios oficiais da nossa Equipe de Qualidade.
tono: Cm
E|---/15-13---------------------------------------------------------------------|
B|----------15-13-13-------15-13-12b--------------------------------------------|
G|-------------------15-13------------------------------------------------------|
D|------------------------------------------------------------------------------|
A|------------------------------------------------------------------------------|
E|------------------------------------------------------------------------------|

E|---/15-13---------------------------------------------------------------------|
B|----------15-13-13-------15b--------------------------------------------------|
G|-------------------15-13------------------------------------------------------|
D|------------------------------------------------------------------------------|
A|------------------------------------------------------------------------------|
E|------------------------------------------------------------------------------|
 play with much treble on distortion
Otros videos de esta canción
      • ½ Tono
      • Am
      • Bbm
      • Bm
      • Cm
      • C#m
      • Dm
      • Ebm
      • Em
      • Fm
      • F#m
      • Gm
      • G#m
    • Agregar a la lista

    Afinación de cifrado

    Afinador online

      OK