Cifra Club

Entre Eu e Você

Função 4

Cifrado: Principal (guitarra y guitarra eléctrica)
tono: B
RIFF 1: (sempre duas vezes)
g|----------6xx6--6-6-------------4xx4--4-4|
d|4xx4--4-4-6xx6--6-6--6xx6--6-6--4xx4--4-4|
a|4xx4--4-4-4xx4--4-6--6xx6--6-6--2xx2--2-2|
e|2xx2--2-2------------4xx4--4-4-----------|

F#5              C#5 
As coisas podem acontecer,
  G#5              B5
O tempo muda entre eu e você
riff 1, (2x)

Nada foi fácil pra mim
Tudo sempre vai ser assim.
E eu estou aqui pra dizer
Que amo você!

riff 1, (2x)
Como tudo deve ser
Entre eu e você

C#9 - D#9 - B9 - C#9

C#9         D#9 B9       C#9
Não quero mudar só pra ficar com você
            D#9    B9         C#9
Não vou esperar as coisas que quero fazer
               D#9     B9        C#9
Antes era mais fácil olhar pra você
Sem Derreter!

riff 1
Como tudo deve ser
Entre eu e você

   F#5    C#5    G#5  B5     
As coisas podem acontecer [entre eu e você]
  F#5   C#5        G#5    B5 
O tempo muda entre eu e você [como tudo deve ser]
...F#5 - C#5 - G#5 - B5...

F#9 - G#9 - E9 - F#9

F#9      G#9   E9     F#9
Quero curtir o pôr-do-sol
                         G#9
Sussurando ao teu ouvido
                 E9   F#9
Podia ser teu inimigo...
       G#9      E9    F#9
Sem distâncias, sem limites
           G#9  E9-F#9
Quero te dizer
Amo você

riff 1 (2x e meia)
E o resto não importa; eu quero você
O tempo pode passar e eu não quero te perder
[Amo você]

F#5      C#5       G#5  B5 
Nada foi fácil pra mim
F#5  C#5        G#5  B5 
Tudo sempre vai ser assim.
  F#5  C#5  G#5       B5 
E eu estou aqui pra dizer

               F#5    C#5    G#5  B5 
Como tudo deve ser
             F#5    C#5    G#5  B5 
Entre eu e você

RIFF 2: (duas vezes)
e|------------------------------------------------------------------|
b|------------------------------------------------------------------|
g|11-xxx11--11-11--13-xxx13--13-13--13-xxx13--13-13--11-xxx11--11-11|
d|11-xxx11--11-11--11-xxx11--11-11--13-xxx13--13-13--9--xxx9---9--9-|
a|9--xxx9---9--9--------------------11-xxx11--11-11-----------------|
e|------------------------------------------------------------------|

Riff 3: solo 
b|----11/14-14--11-9--11-11/12-11-9|
g|11----------------11-------------| }Duas vezes
d|--11-----------------------------|

e|14-13--14-13--14-13--14-13--14-13-----------------------|
b|-----14-----14-----14-----14-----14/---9--9-9-11/12-11-9|

e|14-13--14-13--14-13--14-13--14-13-------------------------------|
b|-----14-----14-----14-----14-----14/---9--9-9-11/12-11-9--xxx9-b|
g|----------------------------------------------------------xxx11b|
d|----------------------------------------------------------xxx11b|
a|----------------------------------------------------------xxx9-b|
e|----------------------------------------------------------------|

Notação:
x= Palhetada Abafada comforme o segmendo do acorde anterior, ou posterior;
/= Slide;
b= Band.

Na sequência "F#9-G#9-E9-F#9", os acordes são feitos uma oitava acima do padrão; Ou seja, o Fá sustenido com nona feito na nona casa, o Sol sustenido, na décima primeira, e assim por diante.
00:00 / 00:00
Otros videos de esta canción
Repetir
Otros videos de esta canción
Composición de Caco / Heberth Jhansen / Jefi / Tuka
12 exhibiciones
    • ½ Tono
    • A
    • Bb
    • B
    • C
    • Db
    • D
    • Eb
    • E
    • F
    • F#
    • G
    • Ab
  • Agregar a la lista
    00:00 / 00:00
    OK