Cifra Club

Every Generation Got Its Own Disease

Fury In The Slaughterhouse

Cifrado: Principal (guitarra y guitarra eléctrica)
Selo Cifra Club: esta cifra foi revisada para atender aos critérios oficiais da nossa Equipe de Qualidade.
tono: Am
    Am              
The more we take the less we give
 Am               F       
That's the modern way to live 
 Am                
someone says live fast die young
        Am               F        
But the time runs always faster son
  Am               
Diseases come diseases go
Am             F            
Welcome to the final show
 Am                    
Let's shake hands with plastic gloves
    Am                F            
And watch out for the last white doves


[Chorus]

      F
and believe me, baby                        
C                       G
every generation got its own disease
    G        Am              F       
and I've got mine so help me please           (2x)


[Verse]

    Am                                        
I think that I'm to young to die
 Am                F            
Love that girl and say goodbye
 Am                          
Change the girls like underwear
 Am           F             
Using bodies without care
    Am                        
The love has gone and what we've got?
  Am               F              
A sweet perfume of sex and blood

      F
and believe me, baby                         (Chorus)
C          /             G
every generation got its own disease
    G        Am      /       F      /
and I've got mine so help me please           (2x)


[Bridge] Guitar melody 

Am       E/G#       G        (2x) F  

      F
and believe me, baby                         (Chorus)
C          /             G
every generation got its own disease
    G        Am      /       F      /
and I've got mine so help me please         (2x)...

 (repeat chorus and jam out ;-)


[Hookline] (Intro):

    Am  (4x)    F   (4x)
E|--------------| |--------------||-------------|---------|------|
B|-----1-0------| |----1-0-------||-------------|---------|------|
G|---------2----| |--------0-----||-------------|---------|------|
D|--------------| |--------------||-------------|---------|------|
A|--(0)---------| |--------------||-------------|---------|------|
E|--------------| |-(1)----------||-------------|---------|------|

Guitar melody (Bridge):                        

E|-------|----0-----|----(0)---|----0-----|----------|---------| |------------|
B|-------|----------|----------|----------|-----3----|---3-----| |------------|
G|--2----|-2-----2--|-1--------|-1-----1--|-0--------|-0---0---| |-0--0--0----|
D|-------|----------|----------|----------|----------|---------| |------------|
A|-------|----------|----------|----------|----------|---------| |------------|
E|-------|----------|----------|----------|----------|-r| epeat--||------------|
Otros videos de esta canción
    13 exhibiciones
      • ½ Tono
      • Am
      • Bbm
      • Bm
      • Cm
      • C#m
      • Dm
      • Ebm
      • Em
      • Fm
      • F#m
      • Gm
      • G#m
    • Agregar a la lista

    Afinación de cifrado

    Afinador online

      OK