Cifra Club

Radio Orchid

Fury In The Slaughterhouse

Cifrado: Principal (guitarra y guitarra eléctrica)
Selo Cifra Club: esta cifra foi revisada para atender aos critérios oficiais da nossa Equipe de Qualidade.
tono: C
Intro:

  am      F       G
E|---------------------------|
B|---------------------------|
G|-----2-------2-------4-----|
D|---2---2---3---3-----------|
A|-0-------3---------5-------|
E|-----------------3---------|


Interlude:

E|---------|
B|---------|
G|---0---0-|
D|--3---3--|
A|-3---3---|
E|---------|


Verse:

am F G


Bridge:

#A dm C G G B


Chorus:

am F G


Play in this order:

Intro 6x
Interlude 4x
Verse 4x
Bridge 1x
Interlude 1x
Chorus 4x
Interlude 5x
Verse 4x
Bridge 1x
Interlude 1x
Chorus 4x
(Solo) Verse 4x
Bridge 1x
Interlude 1x
Chorus 8x...
Otros videos de esta canción
    1 exhibiciones
      • ½ Tono
      • A
      • Bb
      • B
      • C
      • Db
      • D
      • Eb
      • E
      • F
      • F#
      • G
      • Ab
    • Agregar a la lista

    Afinação da cifra

    Afinador online

      Ops (: Contenido disponible solo en portugués.
      OK