Cifra Club

Travelers

Future Of Forestry

Cifrado: Principal (guitarra y guitarra eléctrica)
tono: D
Intro 

E|------------------------------------------------| 
B|-7---7------12----12----------14----14----------|
G|---7---7-7-----11----11--11------11----11--11---|
D|------------------------------------------------|
A|------------------------------------------------|
E|------------------------------------------------|

E|-----------------------------------| 
B|-----------7--7/10-----------------|
G|------7-7-------------------6-6-b6-|
D|--7h9---------------4--7-7---------|
A|-----------------------------------|
E|-----------------------------------|

verse 1 

E|-----------------------------------| 
B|-----------7--7/10-----------------|
G|------7-7-------------------6-6-b--|
D|--7h9---------------4--7-7---------|
A|-----------------------------------|
E|-----------------------------------|

Wait, stay here and have a drink of time 
A drink of time 
Wait, before you split yourself in two 
There's time for you 

Chorus 

E|-3---2--2---2---3---2--2---5---2--3--2---| 
B|-3---3--2---3---3---3--2---5---3--3--3---|
G|-0---2--2---4---0---2--2---6---4--0--2---|
D|-0---0--4---4---0---0--4---7---4--0--0---|
A|-2---0--4---2---2---0--4---7---2--2--0---|
E|-3---x--2---x---3---x--2---5---x--3--x---|

Lead Guitar 

E|--------------------------------------------| 
B|----5--3--5--3--5--3-----5--3--5--3--5--3---|
G|--4-------------------2---------------------|
D|--------------------------------------------|
A|--------------------------------------------|
E|--------------------------------------------|

If you travel here you will feel it all 
The brightest and the darkest 
If you travel here listen to your heart 
And take with you what lasts forever 

verse 2 

Sleep and dream the dream of when you fly 
When you fly 
See through traveler's eyes who want to give 
To love and give 

Chorus (x2)
Compositor não encontrado.
Colaboración y revisión:
  • Michel Andrade
    • ½ Tono
    • A
    • Bb
    • B
    • C
    • Db
    • D
    • Eb
    • E
    • F
    • F#
    • G
    • Ab
  • Agregar a la lista

    0 comentarios

    Ver todos los comentarios

    ¿Lograste tocar?

    0 Tocaron 0 Aún no

    ¡Graba un video tocando Travelers y envíanoslo!

    00:00 / 00:00
    Outros vídeos desta música
    Repetir Calidad Automático
    Outros vídeos desta música
    00:00 / 00:00
    Automático
    OK