Cifra Club

Pra Te Encontrar

Gabriel Duarte

Tablatura: Principal
reproducciones 61
Tono: D
Afinação| D A D G A D

Riff Principal

D|-0----------0----0-------------|
A|-9-9h10p0--------0-------------|
G|-0--------9--9p0-6-6h7p0-0-----|
D|-0--------0------0---------7-4-|
A|-0--------0------0-------------|
D|-0--------0------0-------------|

Forma dos acordes com a afinação trocada
    D   G   A   Bm  Bm/C#
D|-0---0---0---0---0------|
A|-0---0---0---0---0------|
G|-2---4---6---7---9------|
D|-0---0---0---0---0------|
A|-0---x---x---x---x------|
D|-0---5---7---9---11-----|

D
Senhor, estou aqui(2x)
       G        A    Bm
Pra Te encontrar e voar
        Bm/C#       D
em Teus braços de amor

D
Senhor, estou aqui(2x)
       G        A    Bm
Pra Te encontrar e voar
        Bm/C#       D
em Teus braços de amor

D
Senhor, estou aqui(2x)
       G        A          Bm
Pra Te encontrar e me entregar
        Bm/C#       D
em Teus braços de amor(2x)
Acordes para:
    Colaboración y revision:
    • Patrick

    0 comentarios

      mostrar más comentarios

      ¿Conseguiste tocar?

      4tocaron1aún no

      ¡Graba un vídeo tocando Pra Te Encontrar y envianoslo!

      00:00 / 00:00
      outros vídeos desta música
      repetirqualidadeautomática
      Outro vídeos desta música
        00:00 / 00:00
        automática
        OK