Cifra Club

Amuleto

Gabriel Elias

Tablatura: Principal (guitarra)
reproducciones 144
Tono: D
SOLO:

E|-------------------------------------------------]
B|-------------10----------------------------------]
G|7--9--11--9-----9------7-------------------------]
D|-------------------11-----7----------------------]
A|-----------------------------9--7--5--7--9-------]
E|-------------------------------------------------]

E|-------------------------------------------------]
B|-----------------------------10----------------8-]
G|---------------7--9--10---7------6p7p6--6p7p6----]
D|-------------------------------------------------]
A|-------------------------------------------------]
E|5/10---12--10------------------------------------]

E|-------------------------------------------------]
B|7p8p7--5p7p5--3----------------------------------]
G|-------------------------------------------------]
D|-------------------------------------------------]
A|-------------------------------------------------]
E|-------------------------------------------------]

D                          A
voce, a brisa que o vento traz
              Bm
é o meu travisseiro
                G
o meu ponto de paz
A                 D
meu mundo inteiro
                F#
quem me faz rir a toa
                    Bm
a dona da vibe mais boa que tem
                 G
meu amuleto da sorte
  A
que so me atrai o bem

Bm   F#m    Em7         A4            Bm
vem la, o ceu o teu sorriso e seu bem sei
     F#m        Em7           A4     Bm     F#m
vem ca, que eu perco o meu juizo ao beijar voce
Em7           A4
serei o seu farol
C9                        A4
se algum dia nao nascer o sol

D                            F#
só voce pra acelerar meu coração
             Bm           A             G
e me fazer sentir um caminhao de sentimentos bons 
D                         F#               Bm
só voce pra me fazer esquecer, tudo o que sofri
     A               G           D/F#  Em7
por quem não soube me fazer melhor
              A4         D    F#  Bm  A  G
com voce o destino não é só
Acordes para:

    0 comentarios

    mostrar más comentarios

    ¿Conseguiste tocar?

    12 tocaron 3 aún no

    ¡Graba un vídeo tocando Amuleto y envianoslo!

    00:00 / 00:00
    outros vídeos desta música
    repetir qualidade Automático
    Outros vídeos desta música
    00:00 / 00:00
    Automático
    OK