Cifra Club

Cravo e Canela

Gabriel Elias

Tablatura: Principal (guitarra)
tono: E (con acordes en la forma de D) Capotraste na 2ª casa
Capotraste 2ª casa
Intro: D9  /  Em  (4X)

E|--------------------------|
B|--------------------------|
G|-------4--6--4------------|
D|-4/6------------4---------|
A|--------------------------|
E|--------------------------|


D9                  Em
Se tu vira estrela, eu quero voar
D9                   Em
Pra bem perto de ti, pra de perto te olhar
D9               Em
Se tu vira onda, deixa eu te surfar
D9                       Em
Depois faço um sonsinho, pra você se amarrar

G5  D9/F#                 Em7
Tem dias que tudo acontece quase sem querer

E|-------------0-----------|
B|--9----7-----5-----------|
G|-------------0-----------|
D|-------------0-----------|
A|--7----5-----------------|
E|-------------5-----------|

G5    D9/F#                 Em7
Fechei os olhos, de repente só via você

E|-------------0-----------|
B|--9----7-----5-----------|
G|-------------0-----------|
D|-------------0-----------|
A|--7----5-----------------|
E|-------------5-----------|


G5   D9/F#                   Em7
E se a gente é diferente então tem tudo a ver

E|-------------0-----------|
B|--9----7-----5-----------|
G|-------------0-----------|
D|-------------0-----------|
A|--7----5-----------------|
E|-------------5-----------|

G5   D9/F#                      Em7
E se não lembra saiba que eu não vou esquecer
                    D9
Aquele beijo que me deu

                          Em
Menina bela se teu doce é natural
                                   D9
Cravo e canela eu me amarro em teu astral
                            Em
Menina bela, vamos curtir o visual
                    D9
Sentado na beira do mar
Composição de Pablo Domínguez
Colaboración y revision:
  • Tatiane Silva
  • erick
431 reproducciones
    • ½ Tono
    • A
    • Bb
    • B
    • C
    • Db
    • D
    • Eb
    • E
    • F
    • F#
    • G
    • Ab
  • Adicionar à lista

    0 comentarios

    Ver todos os comentários

    ¿Conseguiste tocar?

    4 Tocaram 5 Ainda não

    Grave um vídeo tocando Cravo e Canela e nos envie!

    00:00 / 00:00
    outros vídeos desta música
    repetir qualidade Automático
    Outros vídeos desta música
    00:00 / 00:00
    Automático
    OK