Cifra Club

Lado a Lado

Gabriel Elias

Tablatura: Principal (guitarra)
tono: A
A               C#m
Laiá, lalalaiá laialá
     Bm     Dm
Lalalaiá laiá laiá laiá laiá
(RIF1)
E|----------------------------------------------------------------------------------------------------
A|----------------------------------------------------------------------------------------------------
D|--------------------------------------------------------------4------------------------------------
G|-----2------------------------1--------------------------2-----------------2---4-------------2--
B|--2-------------0-2/3-2-----------------0-2/3-2------------2/3-2-----------0-2-2/0---
E|---------0-2-0--------------------0-2-0---------------------------------------------------------

A
    Quero ter você
               F#m
Sempre em meu querer
           D   A6/C#
Se a onda bater
         Bm   E
Deixa se levar

A
Fácil de se ver
                F#m
Que um mais um é um
                  D          A6/C#
Deixa eu dar um zoom no teu sorriso
       Bm   E
E nele viver

F#m                        E            A     B5
       Tão de repente tudo aconteceu   uhhh uhhh
F#m                         E
       O teu destino se cruzou com o meu
B5                             (C#5)
Uma só direção, o nosso caminhar
D5
Que antes era tão só e agora vai estar 

  A
        Sempre lado a lado seja onde for
C#m
        No seu infinito me perder amor
Bm                                     D
         Pra depois me encontrar dentro do seu olhar

Que trás a paz em um segundo 

  A
        Sempre lado a lado seja onde estiver
C#m
        O nosso sentimento faz brotar a fé
Bm                                   C5
        E manda embora a dor por isso meu amor
 Bm
        Me leva pro seu mundo...
 
A               C#m
Laiá, lalalaiá laialá
     Bm     Dm
Lalalaiá laiá laiá laiá laiá
(RIF2)

E|--------------------------------------------------------------------------------------
A|--------------------------------------------------------------------------------------
D|--------------------------------------------------------------4----------------------
G|-----2------------------------1--------------------------2--------------------------
B|--2-------------0-2/3-2-----------------0-2/3-2-------------------2-4/5--
E|---------0-2-0--------------------0-2-0------------------------0/2-0-------------

A
    Quero ter você
               F#m
Sempre em meu querer
           D   A6/C#
Se a onda bater
         Bm   E
Deixa se levar

A
Fácil de se ver
                F#m
Que um mais um é um
                  D          A6/C#
Deixa eu dar um zoom no teu sorriso
       Bm   E
E nele viver

F#m                        E            A     B5
       Tão de repente tudo aconteceu   uhhh uhhh
F#m                         E
       O teu destino se cruzou com o meu
B5                             (C#5)
Uma só direção, o nosso caminhar
D5
Que antes era tão só e agora vai estar 

  A
        Sempre lado a lado seja onde for
C#m
        No seu infinito me perder amor
Bm                                     D
         Pra depois me encontrar dentro do seu olhar

Que trás a paz em um segundo 
  A
        Sempre lado a lado seja onde estiver
C#m
        O nosso sentimento faz brotar a fé
Bm                                   C5
        E manda embora a dor por isso meu amor
 Bm
        Me leva pro seu mundo...

         F#m  E  A  B5

  A
        Sempre lado a lado seja onde for
C#m
        No seu infinito me perder amor
Bm                                     D
         Pra depois me encontrar dentro do seu olhar

Que trás a paz em um segundo 
  A
        Sempre lado a lado seja onde estiver
C#m
        O nosso sentimento faz brotar a fé
Bm                                   C5
        E manda embora a dor por isso meu amor
 Bm
        Me leva pro seu mundo...
Composição de Gabriel Elias / Tiê Castro
Colaboración y revision:
  • Samylla Louise
14 reproducciones
    • ½ Tono
    • A
    • Bb
    • B
    • C
    • Db
    • D
    • Eb
    • E
    • F
    • F#
    • G
    • Ab
  • Adicionar à lista

    0 comentarios

    Ver todos os comentários

    ¿Conseguiste tocar?

    0 Tocaram 0 Ainda não

    Grave um vídeo tocando Lado a Lado e nos envie!

    00:00 / 00:00
    outros vídeos desta música
    repetir qualidade Automático
    Outros vídeos desta música
    00:00 / 00:00
    Automático
    OK