Cifra Club

Maior Que Eu

Gabriel Elias

Tablatura: Principal (guitarra)
tono: D
Intro 2x: Bm7  A9  G 

RIF 1
E|-----------------------------------------------------------------------------
A|-----------------------------------------------------------------------------
D|-----------------------------9-------------------------------9---------------
G|--7/11-------9--9/11--9--11--------9/11-------9--9/11--9--11-----------------
B|---------10-------------------------------10---------------------------------
E|-----------------------------------------------------------------------------

Bm7     A9
   Foi o seu olhar 
G
   Que te trouxe pra perto
Bm              A9
   Sem pressa de chegar
               G
   O destino é certo

Bm         A9
   Foi maior que eu 
G
   Criei um infinito pra nós dois
Bm              A9
   De repente amanheceu 
G
   Ficou pra depois

Bm      A9      G
Antes de você aparecer
        F#7
Não havia mais ninguém
Bm      A9
Tô precisando te encontrar 
G
Vou te esperar, você me faz tão bem

RIF 2
E|-----------------------------------------------------
A|--9----------------------9---------------------------
D|-----7-----------------------7-----------------------
G|---------7--9--9/11------------7---9/11--9--7--------
B|-----------------------------------------------------
E|-----------------------------------------------------

D                      G
O nosso amor acende o sol
             Bm
Sereia com anzol 
            A9
Menina foi só você chegar
D                           G
Com seu Jeans velho e cabelo despenteado
Bm
Fisgou meu coração 
        A9
Vem ficar do meu lado.

(Repete a música inteira)
Composição de Gabriel Elias / Guga Fernandes / Tiê Castro
Colaboración y revision:
  • Samylla Louise
11 reproducciones
    • ½ Tono
    • A
    • Bb
    • B
    • C
    • Db
    • D
    • Eb
    • E
    • F
    • F#
    • G
    • Ab
  • Adicionar à lista

    0 comentarios

    Ver todos os comentários

    ¿Conseguiste tocar?

    0 Tocaram 0 Ainda não

    Grave um vídeo tocando Maior Que Eu e nos envie!

    00:00 / 00:00
    outros vídeos desta música
    repetir qualidade Automático
    Outros vídeos desta música
    00:00 / 00:00
    Automático
    OK