Cifra Club

Me Namora

Gabriel Elias

Cifrado: Principal (guitarra y guitarra eléctrica)
tono: F# (con acordes en la forma de G) Afinación: Eb Ab Db Gb Bb Eb
    G5
E|------2---------2---------2-------------------------|
B|---------3---------3--------------------------------|
G|------------0---------0-----------------------------|
D|----------------------------------------------------|
A|----------------------------------------------------|
E|--3-------------------------------------------------|

    C9
E|------0---------0---------0-------------------------|
B|---------3---------3--------------------------------|
G|------------0---------0-----------------------------|
D|----------------------------------------------------|
A|--3-------------------------------------------------|
E|----------------------------------------------------|

G5  C9
Ooh  

G5                   C9  
Lembro que te vi caminhar
                       G5
Já havia um brilho no olhar
                        C9
E junto com um sorriso seu 
                               G5
O teu olhar vem de encontro ao meu
                           C9
E o meu dia se fez mais feliz
                     G5
Mesmo sem você perto de mim
         C9
Mesmo longe de mim

G5                           C9
Eu fico o tempo todo a imaginar
                           G5
O que fazer, quando te encontrar
                              C9
Mas se eu fizer, o que vai dizer?
   C9                          G5
Será que é capaz de me entender?
                           C9
Mesmo se não for eu vou tentar
                    G5
Vou fazer você me notar 
                  C9
Por isso eu vim aqui te dizer

      G5                                       C9
Me namora, pois quando eu saio eu sei que você chora
                               G5
E fica em casa só contando as horas
                          C9
Reclama só do tempo que demora
 C9                        G5
Abre os braços vem e me namora
                           C9
Eu quero dar vazão ao sentimento
                                       G5
Mostrar que é lindo o que eu sinto por dentro
                             C9
Beleza essa que eu te canto agora
                          G5
Abre os braços vem e me namora
00:00 / 00:00
Otros videos de esta canción
Repetir
Otros videos de esta canción
Composición de Edu Ribeiro
Colaboración y revisión:
  • Matheus Yoshitani
346 vistas
    • ½ Tono
    • A
    • Bb
    • B
    • C
    • Db
    • D
    • Eb
    • E
    • F
    • F#
    • G
    • Ab
  • Agregar a la lista

    0 comentarios

    Ver todos los comentarios

    ¿Lograste tocar?

    2 Tocaron 1 Aún no

    ¡Graba un video tocando Me Namora y envíanoslo!

    00:00 / 00:00
    OK