Cifra Club

Purple Spider

Gabriel Simon

Cifrado: Principal (guitarra y guitarra eléctrica)
tono: D
e|-----------------------------------------------------------
B|-----------------------------------------------------------
G|-----------------------------------------------------------
D|-----------------------------------------------------------
A|-1-4-1-4-1-------1-4-1-4-1-----------1-4-1-4-1-1-----------
E|-----------4-3-1-----------4-3-1-1-1-------------4-3-1-1-1-

e|------------------------------------------------------
B|------------------------------------------------------
G|------------------------------------------------------
D|-1-1-1---------4-4-4----------------------------------
A|-1-1-1---------4-4-4----------------------------------
E|-1-1-1---4--1--4-4-4--7-7-7-7-------------------------

00:00 / 00:00
Otros videos de esta canción
Repetir
Otros videos de esta canción
Compositor no encontrado.
Colaboración y revisión:
  • Gabriel Simon
10 vistas
    • ½ Tono
    • A
    • Bb
    • B
    • C
    • Db
    • D
    • Eb
    • E
    • F
    • F#
    • G
    • Ab
  • Agregar a la lista

    0 comentarios

    Ver todos los comentarios

    ¿Lograste tocar?

    0 Tocaron 0 Aún no

    ¡Graba un video tocando Purple Spider y envíanoslo!

    00:00 / 00:00
    OK