Cifra Club

Aprenda

A Sua Maneira

Gabriel Valim

Tablatura: Principal (guitarra)
tono: D
guitarra Base ou Violão: toca os acordes (Bm G D A) 


e|-------------3-2-2-----------------|
B|-3-3---------3-3-3--2-2------------|
G|-4-4---------0-2-2--2-2------------|
D|-4-4-0-0-0-0--------2-2------------|
A|-2-2-2-2-2-2--------0-0------------|
E|-----3-3-3-3-----------------------|

Guitarra Solo: toca os tricordes (B5 G5 D5 A5) nos versos e na introdução com as notas abaixo:

Guitarra Solo 1: Distorção 

       Bm         G  D  A
e|--------------------------------------------------------|
B|---------------8--7-------------------------------------|
G|--4-4-4-4-0-0--7--7--6-6-6-6-6--------------------------|
D|--4-4-4-4-0-0--------7-7-7-7-7--------------------------|
A|--------------------------------------------------------|
E|--------------------------------------------------------|

Guitarra Solo 2: Distorção 

     Bm           G  D  A
e|--------------------------------------------------------|
B|--------------------------------------------------------|
G|--------------------------------------------------------|
D|--4------------5--7--7-7-7-7-7--------------------------|
A|--2-x-x-x-x-x--5--5--7-7-7-7-7--------------------------|
E|--x------------3--x--5-5-5-5-5--------------------------|


intro: (Bm G D A) 2x

 Bm        G D    A               Bm    G D A
Ela dormiu    no calor dos meus braços
 Bm            G   D        A        Bm  G D A
E eu acordei sem saber se era um sonho
 Bm              G D     A            Bm  G D A
Algum tempo atrás     pensei em te dizer
Bm              G D                        Bm  G D A
Que eu nunca cai nas suas armadilhas de amor
Bm           G D    A      Bm   G D A 
Naquele amor    a sua maneira
Bm                 G D    A       Bm   G D A
Perdendo meu tempo   a noite inteira

S O L O 1
(Bm-G D A)-2x

Primeiro Solo

E|-----------------------------------------------------------|
B|-----------------------------------------------------------|
G|-----------------------------------------------------------|
D|-----------------------------------------------------------|
A|----4-5--5-5-4--------------------------4-5-7-9------------|
E|-3/7-----------7-5--2-5-5/7--5-7-5--5/7--------------------|

E|----------------------------------------------------------|
B|----------------------------------------------------------|
G|--------------------7-7------7-x-x-x-7---------------------|
D|----9---7-7------7---7-----7--x-x-x-7---------------------|
A|--7---9-7-7--7/9-----9--7/9---x-x-x-9--9/7-5-7-5----------|
E|-------------------------------------------------7--------|


Bm           G D   A         Bm  G D A
Não mandarei   cinzas de rosas
Bm                  G D     A       Bm    G D A
Nem penso em contar   os nossos segredos
Bm           G D   A      Bm   G D A
Naquele amor   a sua maneira
Bm                 G D    A     Bm    G D A
Perdendo meu tempo   a noite inteira

Segundo Solo

E|---------------------------------------------------------|
B|--7s12----10----12----10----12----10---------------------|
G|-------11----11----11----11----11---------7s9---7--7/9---|
D|---------------------------------------------------------|
A|---------------------------------------------------------|
E|---------------------------------------------------------|

E|-----------------------------------------|
B|-------------17-15-17--15-15-14-15-14----|
G|-7-7-6-7-6----------------------------14-|
D|-----------------------------------------|
A|-----------------------------------------|
E|-----------------------------------------|

E|--------------------------------------------------------------------------------|
B|--------------------------------------------------------------------------------|
G|-14h16-16-16-16-14-11-11-11h14-14-14-14-11-9-9-9-11-11-11-11\9-7-7-6h7-6--------|
D|--------------------------------------------------------------------------7-7/9-|
A|--------------------------------------------------------------------------------|
E|--------------------------------------------------------------------------------|



Bm       G D       A             Bm    G D A
Ela dormiu    no calor dos meus braços
 Bm            G   D        A        Bm  G D A
E eu acordei sem saber se era um sonho
 Bm               G D     A            Bm  G D A
Algum tempo atrás     pensei em te dizer
Bm              G D                        Bm  G D A
Que eu nunca cai nas suas armadilhas de amor
Bm           G D    A      Bm   G D A 
Naquele amor    a sua maneira
Bm                 G D    A       Bm   G D A
Perdendo meu tempo   a noite inteira
           Bm   G D A    
A noite inteira 
           Bm   G D A
A noite inteira
           Bm  G D A
A noite inteira 
           Bm   G D A
A noite inteira
       C                           Bm
Ela dormiu no calor dos meus braços...
Colaboración y revision:
  • Gabriel Freeitas
36 reproducciones
    • ½ Tono
    • A
    • Bb
    • B
    • C
    • Db
    • D
    • Eb
    • E
    • F
    • F#
    • G
    • Ab
  • Adicionar à lista

    0 comentarios

    Ver todos os comentários

    ¿Conseguiste tocar?

    0 Tocaram 0 Ainda não

    Grave um vídeo tocando A Sua Maneira e nos envie!

    00:00 / 00:00
    outros vídeos desta música
    repetir qualidade Automático
    Outros vídeos desta música
    00:00 / 00:00
    Automático
    OK