Cifra Club

Aprenda

Amor Fatal

Gabriel Valim

Tablatura: Principal (guitarra)
tono: E


e|--9--9--9--9--9--9/11---11--7--4----9--9--9--9--9--9/11---11--7--4---|
B|--10-10-10-10-10-10/12--12--7--5----10-10-10-10-10-10/12--12--7--5---|
G|---------------------------------------------------------------------|
D|---------------------------------------------------------------------|
A|---------------------------------------------------------------------|
E|---------------------------------------------------------------------|

e|--7--------7--6---|--12--11--9-----------------------|---------------------------|
B|----7-------------|-------------12--10--9------------|---------------------------|
G|------6--6--------|------------------------11--9--8--|--9--8--6--------------9---|
D|------------------|----------------------------------|-----------9--7--6--7------|
A|------------------|----------------------------------|---------------------------|
E|------------------|----------------------------------|---------------------------|


C#m  G#m         A                      B7        
Vai,     que eu vou ficar aqui e te esperar amor
        G#         G#7           C#m 
Que eu fico aqui sozinho olhando pra vc
     F#                         B7 
Nas fotos que ficaram aqui em minhas mãos
    C#m  G#m     A                         B7  
E assim,     eu mato minha saudade olhando pra você
  G#              G#7         C#m
Espero a hora e o dia em que você voltar
   F#                             B7
O amor que sinto por você faz esperar
      A                B            A 
Esse amor que sinto por você é tão forte
       F#          B7
Não consigo controlar
   G#          G#7          C#m
E tudo que eu faço é só pra ver você feliz
     F#                       B7
te beijar é meu desejo, tudo que eu sempre quis
        E
Amor Fatal
         B ou (7)       C#m  C#m7 (c/ o dedinho embaixo) 
Que me pegou e não tem jeito
          A            F#m           B7
Não é normal, amar demais é o meu defeito
        E 
Amor Fatal
           C#m        G#m    
Que não me da nem esperança
       A                A   G#m   
Esse amor é o que eu sempre    quis
      F#m         B7         E
Faço tudo só pra ver você feliz


                   (rapidinho) 
e|--7p9-7p9-7p9|---7p9-7p9-7p9-7p9--|--7-7p9---7--7-7p9---7-------|
B|-------------------------------------------9----------9---------|---
G|----------------------------------------------------------------|---
D|----------------------------------------------------------------|---
A|----------------------------------------------------------------|
E|----------------------------------------------------------------|
Esse é rapidinho, logo depois que acaba o "você feliiiz", mas depois tem umas embara-
ções que ainda não aprendi. E tem mais embaixo.                                      


Quando terminar o embaralho você entra.
                             A
e|--7-7p9--999--12-11--|----5-7-5---5-------------5--7/9--7--4--7-
B|---------------------|--7-------7---7--5---5--7-----------------
G|---------------------|-------------------6----------------------
D|---------------------|------------------------------------------
A|---------------------|------------------------------------------
E|---------------------|------------------------------------------

-4---4---4---------------------------------------------|
---7---7---7--4--7-4-----------------------------------|
---------------------6-4-6-4---6--8/9-8-6--8/9--8p9----|
-----------------------------7-----------------------6-|
-------------------------------------------------------|
-------------------------------------------------------|

e|------------5--7-7/9--7---7------------------------------------------|
B|------5--7--------------9---9--7-7p9--7~-----------------------------|-
G|--4/5----------------------------------------------------------------|-
D|---------------------------------------------------------------------|-
A|---------------------------------------------------------------------|
E|---------------------------------------------------------------------|
Depois vem outra embaralhada..... e aumenta um semi-ou seja muda de 


        F 
Amor Fatal
         C ou (7)       Dm  Dm7 (c/ o dedinho embaixo) 
Que me pegou e não tem jeito
          A            Gm           C7
Não é normal, amar demais é o meu defeito
        F 
Amor Fatal
           Dm        Am    
Que não me da nem esperança
       A#                A#  Am   
Esse amor é o que eu sempre    quis
      Gm         C7         F     Gm  C (agudo) 
Faço tudo só pra ver você feliz

(uma batida apenas)
Dm   Am         A#                      C7
Vai,    que eu vou ficar aqui e te esperar amor

e|--------5p6p5---|
Colaboración y revision:
  • Gabriel Freeitas
18 reproducciones
    • ½ Tono
    • A
    • Bb
    • B
    • C
    • Db
    • D
    • Eb
    • E
    • F
    • F#
    • G
    • Ab
  • Adicionar à lista

    0 comentarios

    Ver todos os comentários

    ¿Conseguiste tocar?

    0 Tocaram 0 Ainda não

    Grave um vídeo tocando Amor Fatal e nos envie!

    00:00 / 00:00
    outros vídeos desta música
    repetir qualidade Automático
    Outros vídeos desta música
    00:00 / 00:00
    Automático
    OK