Cifra Club

My Lover's Box

Garbage

Tab de bajo: Principal
Intro/Chorus:
G|----------------------------------------|
D|----------------0-------------------0---|
A|----------3-3-33-31-----------3-3-33-31-|
E|-3-3-3-1-3---------1-3-3-3-1-3----------|

Verse:
G|-------------------|
D|-------------------|
A|-6-6-66-6-66-6-6/3-|
E|-------------------|

Bridge/outro:
G|-------------|
D|-------------|		repeat
A|-5-5-5-5-----|		as
E|--------5-3--|		needed
00:00 / 00:00
Otros videos de esta canción
Repetir
Otros videos de esta canción
Composición de Garbage
Colaboración y revisión:
  • Hellektra
26 exhibiciones
00:00 / 00:00
OK