Cifra Club

Silence Is Golden

Garbage

Cifrado: Principal (guitarra y guitarra eléctrica)
tono: E
Tuning: Standard

INTRO
                                                      x2
|-------------------------------------------------------|
|-------------------------------------------------------|
|-------------------2---2----2-2-2-2-2-2-2-----2---2----|
|-4-4-4-4-4-4-4--/4-2-4-2-5--2-2-2-2-2-2-2--/4-2-4-2-5--|
|-4-4-4-4-4-4-4--/4---4---4--0-0-0-0-0-0-0--/4---4---4--|
|-2-2-2-2-2-2-2-----------------------------------------|


VERSE 

  A         E         F#m       E
|----0---------0--------------------------|
|-------2---------0------2---------0------|
|---------2---------1-------2---------1---|
|-----------------------------4---------2-|
|-0---------------------------------------|
|-----------0---------2---------0---------|

If i am in silent......

 Lead
|--/7~~~~----------------------|
|--/7~~~~----------------------|
|-------------------2---2------|
|----------------/4-2-4-2-5----|
|----------------/4---4---4----|
|------------------------------|

PRECHORUS
|------------------------------------------------------------|
|------------------------------------------------------------|
|-2-2-2-4b5r4p2--------4b5r4p2--4-4-4-4b5r4p2----------------|
|-2-2-2----------2-2-2----------4-4-4----------5-5-5-5-5-5-5-|
|-0-0-0----------2-2-2----------2-2-2----------5-5-5-5-5-5-5-|
|----------------0-0-0-------------------------3-3-3-3-3-3-3-|

Silence is golden......

|----------------------------------------------------------------------|
|----------------------------------------------------------------------|
|-2-2-2-4b5r4p2--------4b5r4p2--4-4-4-4b5r4p2--------------------------|
|-2-2-2----------2-2-2----------4-4-4----------5-5-5-5-5-5-5-5-5-5-5-5-|
|-0-0-0----------2-2-2----------2-2-2----------5-5-5-5-5-5-5-5-5-5-5-5-|
|----------------0-0-0-------------------------3-3-3-3-3-3-3-3-3-3-3-3-|


BRIDGE
                                                      x2
|-------------------------------------------------------|
|-------------------------------------------------------|
|-------------------2---2----2-2-2-2-2-2-2-----2---2----|
|-4-4-4-4-4-4-4--/4-2-4-2-5--2-2-2-2-2-2-2--/4-2-4-2-5--|
|-4-4-4-4-4-4-4--/4---4---4--0-0-0-0-0-0-0--/4---4---4--|
|-2-2-2-2-2-2-2-----------------------------------------|

VERSE 2 

  A         E         F#m       E
|----0---------0--------------------------|
|-------2---------0------2---------0------|
|---------2---------1-------2---------1---|
|-----------------------------4---------2-|
|-0---------------------------------------|
|-----------0---------2---------0---------|

 Lead
|--/7~~~~----------------------|
|--/7~~~~----------------------|
|-------------------2---2------|
|----------------/4-2-4-2-5----|
|----------------/4---4---4----|
|------------------------------|


PRECHORUS 2
                                                           x3
|------------------------------------------------------------|
|------------------------------------------------------------|
|-2-2-2-4b5r4p2--------4b5r4p2--4-4-4-4b5r4p2----------------|
|-2-2-2----------2-2-2----------4-4-4----------5-5-5-5-5-5-5-|
|-0-0-0----------2-2-2----------2-2-2----------5-5-5-5-5-5-5-|
|----------------0-0-0-------------------------3-3-3-3-3-3-3-|

|----------------------------------------------------------------------|
|----------------------------------------------------------------------|
|-2-2-2-4b5r4p2--------4b5r4p2--4-4-4-4b5r4p2--------------------------|
|-2-2-2----------2-2-2----------4-4-4----------5-5-5-5-5-5-5-5-5-5-5-5-|
|-0-0-0----------2-2-2----------2-2-2----------5-5-5-5-5-5-5-5-5-5-5-5-|
|----------------0-0-0-------------------------3-3-3-3-3-3-3-3-3-3-3-3-|


INTERLUDE
                                                x3
|-------------------------------------------------|
|-------------------------------------------------|
|-------------------------------------------------|
|-4-4-4-4-4-4-4-4-4-4-4-4-5-5-5-5-5-5-5-5-5-5-5-5-|
|-4-4-4-4-4-4-4-4-4-4-4-4-5-5-5-5-5-5-5-5-5-5-5-5-|
|-2-2-2-2-2-2-2-2-2-2-2-2-3-3-3-3-3-3-3-3-3-3-3-3-|

Did U Hear me Speak.....

|---------------------------------|
|---------------------------------|
|---------------------------------|
|-4-4-4-4-4-4-4-4-4-4-4-4-4-4-4-4-|
|-4-4-4-4-4-4-4-4-4-4-4-4-4-4-4-4-|
|-2-2-2-2-2-2-2-2-2-2-2-2-2-2-2-2-|


OUTRO
                                                x3
|-------------------------------------------------|
|-------------------------------------------------|
|-12-12-12-12-11-11-11-11-14-14-14-14-14-14-14-14-|
|-12-12-12-12-11-11-11-11-14-14-14-14-14-14-14-14-|
|-10-10-10-10-9--9--9--9--12-12-12-12-12-12-12-12-|
|-------------------------------------------------|

Won't Someone listen?.....

|---------------------------------|
|---------------------------------|
|---------------------------------|
|-9-9-9-9-9-9-9-9-9-9-9-9-9-9-9-9-|
|-9-9-9-9-9-9-9-9-9-9-9-9-9-9-9-9-|
|-7-7-7-7-7-7-7-7-7-7-7-7-7-7-7-7-|

                                                x3
|-------------------------------------------------|
|-------------------------------------------------|
|-12-12-12-12-11-11-11-11-14-14-14-14-14-14-14-14-|
|-12-12-12-12-11-11-11-11-14-14-14-14-14-14-14-14-|
|-10-10-10-10-9--9--9--9--12-12-12-12-12-12-12-12-|
|-------------------------------------------------|

|---------------------------------|
|---------------------------------|
|---------------------------------|
|-9-9-9-9-9-9-9-9-9-9-9-9-9-9-9-9-|
|-9-9-9-9-9-9-9-9-9-9-9-9-9-9-9-9-|
|-7-7-7-7-7-7-7-7-7-7-7-7-7-7-7-7-|

                                                x3
|-------------------------------------------------|
|-------------------------------------------------|
|-12-12-12-12-11-11-11-11-14-14-14-14-14-14-14-14-|
|-12-12-12-12-11-11-11-11-14-14-14-14-14-14-14-14-|
|-10-10-10-10-9--9--9--9--12-12-12-12-12-12-12-12-|
|-------------------------------------------------|

|---------------------------------|
|---------------------------------|
|---------------------------------|
|-9-9-9-9-9-9-9-9-9-9-9-9-9-9-9-9-|
|-9-9-9-9-9-9-9-9-9-9-9-9-9-9-9-9-|
|-7-7-7-7-7-7-7-7-7-7-7-7-7-7-7-7-|

                                                x3
|-------------------------------------------------|
|-------------------------------------------------|
|-12-12-12-12-11-11-11-11-14-14-14-14-14-14-14-14-|
|-12-12-12-12-11-11-11-11-14-14-14-14-14-14-14-14-|
|-10-10-10-10-9--9--9--9--12-12-12-12-12-12-12-12-|
|-------------------------------------------------|

|---------------------------------|
|---------------------------------|
|---------------------------------|
|-9-9-9-9-9-9-9-9-9-9-9-9-9-9-9-9-|
|-9-9-9-9-9-9-9-9-9-9-9-9-9-9-9-9-|
|-7-7-7-7-7-7-7-7-7-7-7-7-7-7-7-7-|

                                                x3
|-------------------------------------------------|
|-------------------------------------------------|
|-12-12-12-12-11-11-11-11-14-14-14-14-14-14-14-14-|
|-12-12-12-12-11-11-11-11-14-14-14-14-14-14-14-14-|
|-10-10-10-10-9--9--9--9--12-12-12-12-12-12-12-12-|
|-------------------------------------------------|

|---------------------------------|
|---------------------------------|
|---------------------------------|
|-9-9-9-9-9-9-9-9-9-9-9-9-9-9-9-9-|
|-9-9-9-9-9-9-9-9-9-9-9-9-9-9-9-9-|
|-7-7-7-7-7-7-7-7-7-7-7-7-7-7-7-7-|

                                                x3
|-------------------------------------------------|
|-------------------------------------------------|
|-12-12-12-12-11-11-11-11-14-14-14-14-14-14-14-14-|
|-12-12-12-12-11-11-11-11-14-14-14-14-14-14-14-14-|
|-10-10-10-10-9--9--9--9--12-12-12-12-12-12-12-12-|
|-------------------------------------------------|

End on
|-------------------------------------------|
|-------------------------------------------|
|-11-11-11-11-11-11-11-11-11-11-11-11-11----|
|-X--X--X--X--X--X--X--X--X--X--X--X--X-----|
|-9--9--9--9--9--9--9--9--9--9--9--9--9-----|
|-7--7--7--7--7--7--7--7--7--7--7--7--7-----|


Lyric

If I am silent then
I am not real 
If I speak up then 
No one will hear 
If I wear a mask there's 
Somewhere to hide 

Silence is golden 
I have been broken 
Safe in my own skin 
So nobody wins 

If I raise my voice 
Will someone get hurt? 
And if I can feel it 
But I won't get touched 
If no truth was spoken 
Then no lies can hide

Silence is golden 
I have been broken 
Safe in my own skin 
So nobody wins 

Silence is golden 
Nobody gets in 
Safe in my own skin 
So nobody wins 

Did you hear me speak ?
Do you understand ?
Did you hear my voice ? 
Would you hold my hand ?
Did you understand me ?

Won't someone listen? 
Nobody gets in 
My body's a temple 
But nothing is simple 

Silence is golden 
I have been broken  
Something was stolen
I'm safe in my own skin 

Safe in my own skin
Won't someone listen? 
My body's a temple 
But nothing is simple 

My body's a temple 
But nothing is simple 
Something was stolen 
I have been broken
 
I have been broken 
The silence is golden
I have been broken  
I'm safe in my own skin 
00:00 / 00:00
Otros videos de esta canción
Repetir
Otros videos de esta canción
Composición de Butch Vig / Duke Erikson / Shirley Manson / Steve Marker
Colaboración y revisión:
  • Marcus Russo
75 vistas
    • ½ Tono
    • A
    • Bb
    • B
    • C
    • Db
    • D
    • Eb
    • E
    • F
    • F#
    • G
    • Ab
  • Agregar a la lista

    0 comentarios

    Ver todos los comentarios

    ¿Lograste tocar?

    0 Tocaron 0 Aún no

    ¡Graba un video tocando Silence Is Golden y envíanoslo!

    00:00 / 00:00
    OK