Cifra Club

Why Do you Love Me

Garbage

Cifrado: Principal (guitarra y guitarra eléctrica)
Selo Cifra Club: esta cifra foi revisada para atender aos critérios oficiais da nossa Equipe de Qualidade.
tono: G
[Intro]

E|---------------------------|
B|---------------------------|
G|---------------------------|
D|------5---7---5---7--------| (2x)
A|------5---7---5---7--------|
E|----0-3-0-5-0-3-0-5-0------|

E              C      G           D
I'm no Barbie doll, I'm not your baby girl
E              C      G           B
So I've done ugly things and I have made mistakes
E              C      G           D
And I am not as pretty as those girls in magazines
E              C      G           B
I am rotten to my core if they're to be believed
C                                     D
So what if I'm no baby bird hanging upon your every word?
C                                     D
Nothing ever smells of roses that rises out of mud

Why do you love me?

Why do you love me?

Why do you love me?

You're driving me crazy
E          C
Why do you love me?
G           B
Why do you love me?

E|---------------------------|
B|---------------------------|
G|---------------------------|
D|------5---7---5---7--------| (2x)
A|------5---7---5---7--------|
E|----0-3-0-5-0-3-0-5-0------|

E                    C            G               D
You're not some baby boy, Why you acting so surprised
E                    C             G                    B
You're sick of all the rules, Well I'm sick of all your lies
E                          C    G                 D
I've held back a wealth of shit I think I'm gonna choke
E                   C                G                 B
I'm standing in the shadows with the words stuck in my throat
        C                                     D
Does it really come as a surprise when I tell you I don't feel good?

That nothing ever came from nothing man, oh man ain't that the truth

E          C
Why do you love me?
G           B
Why do you love me?

C
I get back up and I do it again
D
I get back up and I do it again
C
I get back up and I do it again
D
I get back up and I do it... do it again

E|---------------------------|
B|---------------------------|
G|---------------------------|
D|------5---7---5---7--------| (4x)
A|------5---7---5---7--------|
E|----0-3-0-5-0-3-0-5-0------|

E|----------------------------------------------------------|
B|----------------------------------------------------------|
G|----------------------------------------------------------|
D|--11--11--11--11--9--7--9-----------------------5---7-----| (2x)
A|----------10------------------------------------5---7-----|
E|----------------------------------------------0-3-0-5-0---|

I think you're sleeping with a friend of mine

I have no proof but I think that I'm right

And you've still got the most beautiful face

It just makes me sad most of the time

C
I get back up and I do it again
D
I get back up and I do it again
C
I get back up and I do it again
D
I get back up and I do it... do it again

Do it again. Do it again. Do it again

C
Why do you love me?
D
Why do you love me?
C
Why do you love me?
D
Why do you love me?

E|---------------------------|
B|---------------------------|
G|---------------------------|
D|------5---7---5---7--------|
A|------5---7---5---7--------|
E|----0-3-0-5-0-3-0-5-0------|
Otros videos de esta canción
    6.461 exhibiciones
      • ½ Tono
      • A
      • Bb
      • B
      • C
      • Db
      • D
      • Eb
      • E
      • F
      • F#
      • G
      • Ab
    • Agregar a la lista

    Afinación de cifrado

    Afinador online

      OK