Cifra Club

Vai No Cavalinho

Gasparzinho

Tablatura: Principal
reproducciones 443
Tono: C#
Intro:  A#m  G#


E|-------------------------------------------|
B|--6-6---6-6-6-6-7-6------------------------|
G|------6------------------------------------|
D|-------------------------------------------|
A|-------------------------------------------|
E|-------------------------------------------|

E|-------------------------------------------|
B|--4-4---4-4-4-4--6-4-----------------------|
G|------5------------------------------------|
D|-------------------------------------------|
A|-------------------------------------------|
E|-------------------------------------------|

E|-------------------------------------------|
B|--6-6---6-6-6-6-7-6------------------------|
G|------6------------------------------------|
D|-------------------------------------------|
A|-------------------------------------------|
E|-------------------------------------------|

E|-------------------------------------------|
B|--4-4---4-4-4-4--6-4-6---------------------|
G|------5------------------------------------|
D|-------------------------------------------|
A|-------------------------------------------|
E|-------------------------------------------|

      A#m
Essa mulher enlouqueceu
G#
Ela quer montar em cima de mim
A#m
Ela pirou de vez,
A#m             G#
Tá pensando que eu sou seu cavalinho
      F
E eu vou só dizendo assim:
  A#m                            G#
- Vai, vai, vai, vai no cavalinho (4x)
A#m                  G#
Potoc, potoc, potoc, potoc
                          A#m
Segura gatinha não sai do galope (2x)
A#m                              G#
Na palmadinha não, na palmadinha não

Na palmadinha
G#                 A#m
Quem dá palmada sou eu (2x)
A#m                           G#
Vai, vai, vai, vai no cavalinho (4x)
Acordes para:
    Colaboración y revision:
    • Igor Miranda
    • joão pedro
    • Reinaldo Júnior

    0 comentarios

      mostrar más comentarios

      ¿Conseguiste tocar?

      7tocaron0aún no

      ¡Graba un vídeo tocando Vai No Cavalinho y envianoslo!

      00:00 / 00:00
      outros vídeos desta música
      repetirqualidadeautomática
      Outro vídeos desta música
        00:00 / 00:00
        automática
        OK