Cifra Club

Linda ( part Aoi)

the GazettE

Tablatura: Principal (guitarra)
tono: E
D||-------|-------|-------|-------|-------|-------|-------|-------|
A||-------|-------|-------|-------|-------|-------|-------|-------|
F||-------|-------|-------|-------|-------|-------|-------|-------|
C||-------|-------|-------|-------|-------|-------|-------|-------|
G||-------|-------|-------|-------|-------|-------|-------|-------|
D||-------|-------|-------|-------|-------|-------|-------|-------|


   S  S  S  S  S  S  S  S S S S S  S  S  S  S  
----------------------------------------------|
----------------------------------------------|
--11-11-11-11-11-11-11-11-9-9-9-9-11-11-12-12-|
----------------------------------------------|
---9--9--9--9--9--9--9--9-7-7-7-7--9--9-10-10-|
----------------------------------------------|

   S  S  S  S  S  S  S  S  S  S  S  S  S  S  S  S  
--------------------------------------------------|
--------------------------------------------------|
--11-11-11-11-11-11-11-11-14-14-14-14-12-12-11-11-|
--------------------------------------------------|
---9--9--9--9--9--9--9--9-12-12-12-12-10-10--9--9-|
--------------------------------------------------|

   S  S  S  S S S S S S S S S S S S S  
--------------------------------------|
--------------------------------------|
--12-12-12-12-7-7-7-7-6-6-6-6-7-7-9-9-|
--------------------------------------|
--10-10-10-10-5-5-5-5-4-4-4-4-5-5-7-7-|
--------------------------------------|

  S S S S  S  S S S S  S  S  S  S  S S S  
-----------------------------------------|
-----------------------------------------|
--7-7-7-7-11-11-9-9-9-12-12-12-11-11-9-9-|
-----------------------------------------|
--5-5-5-5--9--9-7-7-7-10-10-10--9--9-7-7-|
-----------------------------------------|

   S  S  S  S  S  S  S  S S S S S  S  S  S  S  
----------------------------------------------|
----------------------------------------------|
--11-11-11-11-11-11-11-11-9-9-9-9-11-11-12-12-|
----------------------------------------------|
---9--9--9--9--9--9--9--9-7-7-7-7--9--9-10-10-|
----------------------------------------------|

   S  S  S  S  S  S  S  S  S  S  S  S  S  S  S  S  
--------------------------------------------------|
--------------------------------------------------|
--11-11-11-11-11-11-11-11-14-14-14-14-12-12-11-11-|
--------------------------------------------------|
---9--9--9--9--9--9--9--9-12-12-12-12-10-10--9--9-|
--------------------------------------------------|

   S  S  S  S S S S S S S S S S S S S    S S S S  S  S S S S  S  S  S Q      
--------------------------------------|-------------------------------------|
--------------------------------------|-------------------------------------|
--12-12-12-12-7-7-7-7-6-6-6-6-7-7-9-9-|--7-7-7-7-11-11-9-9-9-12-12-12-x\----|
--------------------------------------|-------------------------------x\----|
--10-10-10-10-5-5-5-5-4-4-4-4-5-5-7-7-|--5-5-5-5--9--9-7-7-7-10-10-10-x\----|
--------------------------------------|-------------------------------------|

  H        H            E  S S S E.  E  S S S E.   
---------------------|----------------------------|
---------------------|---------x-6----------x-5---|
-----------x\--------|---------x-4----------x-3---|
-----------x\--------|---------x------------x-----|
-----------x\--------|--2--2-2-------2--2-2-------|
---------------------|--0--0-0-------0--0-0-------|


                    PM   PM   PM                               
  E  S S S E.  E  S S  S S  S S     E  S S S E.  E  S S S E.   
---------------------------------|----------------------------|
---------x-6---------------------|---------x-6----------x-5---|
---------x-4---------------------|---------x-4----------x-3---|
---------x-----------------------|---------x------------x-----|
--2--2-2-------2--2-2--x-3----3--|--2--2-2-------2--2-2-------|
--0--0-0-------0--0-0--x-1----1--|--0--0-0-------0--0-0-------|


                    PM   PM   PM      PM PM    PM        PM       PM    
  E  S S S E.  E  S S  S S  S S       S  S  E  S  E  S S S  E  E  S  S  
---------------------------------||----------------------------3-------|
---------x-6---------------------||---------6-----5--6-L----5--3-----6-|
---------x-4---------------------||*--------4-----3--4-L----3--------4-|
---------x-----------------------||*-----------------------------------|
--2--2-2-------2--2-2--x-3----3--||------------------------------------|
--0--0-0-------0--0-0--x-1----1--||---0--0-----0---------0--------0----|


  PM PM    PM        PM                 PM PM    PM        PM       PM    
  S  S  E  S  E  S S S  E  S  S S  S    S  S  E  S  E  S S S  E  E  S  S  
-------------------------------------|---------------------------3-------|
--------6-----5--6-L----5------------|--------6-----5--6-L----5--3-----6-|
--------4-----3--4-L----3------------|--------4-----3--4-L----3--------4-|
---------------------------2p-0-L--L-|-----------------------------------|
--------------------------------2S-1-|-----------------------------------|
--0--0-----0---------0---------------|--0--0-----0---------0--------0----|


  PM PM    PM        PM                                                        
  S  S  E  S  E  S S S  E  S  S S  S    W                    W                 
-------------------------------------|--0~----------------|--L----------------|
--------6-----5--6-L----5------------|--0~----------------|--L----------------|
--------4-----3--4-L----3------------|--0~----------------|--L----------------|
---------------------------2p-0-L--L-|--2~----------------|--L----------------|
--------------------------------2S-1-|--2~----------------|--L----------------|
--0--0-----0---------0---------------|--0~----------------|--L----------------|

  W                    W                 
--0~----------------|--L----------------|
--0~----------------|--L----------------|
--0~----------------|--L----------------|
--2~----------------|--L----------------|
--2~----------------|--L----------------|
--0~----------------|--L----------------|


     PM PM    PM   PM PM    PM PM   PM       PM PM    PM   PM PM    PM PM   PM  
  E  S  S  E  S  S S  S  E  S  S  S S     E  S  S  E  S  S S  S  E  S  S  S S   
---------------------------------------|---------------------------------------|
---------------------------------------|---------------------------------------|
---------------------------------------|---------------------------------------|
---------------------------------------|---------------------------------------|
--2--2--2--2--2--2-2--2-----7--5----5--|--2--2--2--2--2--2-2--2-----7--5----5--|
--0--0--0--0--0--0-0--0--6--5--3----3--|--0--0--0--0--0--0-0--0--6--5--3----3--|


     PM PM    PM   PM PM    PM PM   PM  
  E  S  S  E  S  S S  S  E  S  S  S S   
---------------------------------------|
---------------------------------------|
---------------------------------------|
---------------------------------------|
--2--2--2--2--2--2-2--2-----7--5----5--|
--0--0--0--0--0--0-0--0--6--5--3----3--|


     PM PM    PM   PM PM    PM PM   PM    
  E  S  S  E  S  S S  S  E  S  S  S S     
----------------------------------------||
----------------------------------------||
---------------------------------------*||
---------------------------------------*||
--2--2--2--2--2--2-2--2-----7--5----5---||
--0--0--0--0--0--0-0--0--6--5--3----3---||


     PM PM    PM   PM PM    PM PM   PM                              
  E  S  S  E  S  S S  S  E  S  S  S S     E  E  S E.  S E  S S E.   
---------------------------------------|---------------------------|
---------------------------------------|---------------------------|
---------------------------------------|---------------------------|
---------------------------------------|---------------------------|
--2--2--2--2--2--2-2--2-----7--5----5--|--2--2--5-5---8-8--8-7-7---|
--0--0--0--0--0--0-0--0--6--5--3----3--|--0--0--3-3---6-6--6-5-5---|

  E  E  S E.  S E  S S E.     E  E  S E.  S E  S S E.   
---------------------------|---------------------------|
---------------------------|---------------------------|
---------------------------|---------------------------|
---------------------------|---------------------------|
--2--2--5-5---8-8--8-7-7---|--2--2--5-5---8-8--8-7-7---|
--0--0--3-3---6-6--6-5-5---|--0--0--3-3---6-6--6-5-5---|

  E  E  S E.  S E  S S E.     E  E  S E.  S E  S S E.   
---------------------------|---------------------------|
---------------------------|---------------------------|
---------------------------|---------------------------|
---------------------------|---------------------------|
--2--2--5-5---8-8--8-7-7---|--2--2--5-5---8-8--8-7-7---|
--0--0--3-3---6-6--6-5-5---|--0--0--3-3---6-6--6-5-5---|

  E  E  S E.  S E  S S E.     E  E  S E.  S E  S S E.   
---------------------------|---------------------------|
---------------------------|---------------------------|
---------------------------|---------------------------|
---------------------------|---------------------------|
--2--2--5-5---8-8--8-7-7---|--2--2--5-5---8-8--8-7-7---|
--0--0--3-3---6-6--6-5-5---|--0--0--3-3---6-6--6-5-5---|

  E  E  S E.  E  E  E  E                   
--------------------------|-------|-------|
--------------------------|-------|-------|
--------------------------|-------|-------|
--------------------------|-------|-------|
--2--2--5-5---8--8--8--8--|-------|-------|
--0--0--3-3---6--6--6--6--|-------|-------|

   S  S  S  S  S  S  S  S S S S S  S  S  S  S  
----------------------------------------------|
----------------------------------------------|
--11-11-11-11-11-11-11-11-9-9-9-9-11-11-12-12-|
----------------------------------------------|
---9--9--9--9--9--9--9--9-7-7-7-7--9--9-10-10-|
----------------------------------------------|

   S  S  S  S  S  S  S  S  S  S  S  S  S  S  S  S  
--------------------------------------------------|
--------------------------------------------------|
--11-11-11-11-11-11-11-11-14-14-14-14-12-12-11-11-|
--------------------------------------------------|
---9--9--9--9--9--9--9--9-12-12-12-12-10-10--9--9-|
--------------------------------------------------|

   S  S  S  S S S S S S S S S S S S S  
--------------------------------------|
--------------------------------------|
--12-12-12-12-7-7-7-7-6-6-6-6-7-7-9-9-|
--------------------------------------|
--10-10-10-10-5-5-5-5-4-4-4-4-5-5-7-7-|
--------------------------------------|

  S S S S  S  S S S S  S  S  S  S  S S S  
-----------------------------------------|
-----------------------------------------|
--7-7-7-7-11-11-9-9-9-12-12-12-11-11-9-9-|
-----------------------------------------|
--5-5-5-5--9--9-7-7-7-10-10-10--9--9-7-7-|
-----------------------------------------|

   S  S  S  S  S  S  S  S S S S S  S  S  S  S  
----------------------------------------------|
----------------------------------------------|
--11-11-11-11-11-11-11-11-9-9-9-9-11-11-12-12-|
----------------------------------------------|
---9--9--9--9--9--9--9--9-7-7-7-7--9--9-10-10-|
----------------------------------------------|

   S  S  S  S  S  S  S  S  S  S  S  S  S  S  S  S  
--------------------------------------------------|
--------------------------------------------------|
--11-11-11-11-11-11-11-11-14-14-14-14-12-12-11-11-|
--------------------------------------------------|
---9--9--9--9--9--9--9--9-12-12-12-12-10-10--9--9-|
--------------------------------------------------|

   S  S  S  S S S S S S S S S S S S S    S S S S S S S S S S S S S S S S       
--------------------------------------|----------------------------------|----|
--------------------------------------|----------------------------------|----|
--12-12-12-12-7-7-7-7-6-6-6-6-7-7-9-9-|--7-7-7-7-7-7-7-7-7-7-7-7-7-7-7-7-|----|
--------------------------------------|----------------------------------|----|
--10-10-10-10-5-5-5-5-4-4-4-4-5-5-7-7-|--5-5-5-5-5-5-5-5-5-5-5-5-5-5-5-5-|----|
--------------------------------------|----------------------------------|----|

                                     E  E  S E.  S E  S S E.   
----|----|----|----|----|----|----|---------------------------|
----|----|----|----|----|----|----|---------------------------|
----|----|----|----|----|----|----|---------------------------|
----|----|----|----|----|----|----|---------------------------|
----|----|----|----|----|----|----|--2--2--5-5---8-8--8-7-7---|
----|----|----|----|----|----|----|--0--0--3-3---6-6--6-5-5---|

  E  E  S E.  S E  S S E.     E  E  S E.  S E  S S E.   
---------------------------|---------------------------|
---------------------------|---------------------------|
---------------------------|---------------------------|
---------------------------|---------------------------|
--2--2--5-5---8-8--8-7-7---|--2--2--5-5---8-8--8-7-7---|
--0--0--3-3---6-6--6-5-5---|--0--0--3-3---6-6--6-5-5---|

  E  E  S E.  S E  S S E.     E  E  S E.  S E  S S E.   
---------------------------|---------------------------|
---------------------------|---------------------------|
---------------------------|---------------------------|
---------------------------|---------------------------|
--2--2--5-5---8-8--8-7-7---|--2--2--5-5---8-8--8-7-7---|
--0--0--3-3---6-6--6-5-5---|--0--0--3-3---6-6--6-5-5---|

  E  E  S E.  S E  S S E.     E  E  S E.  S E  S S E.   
---------------------------|---------------------------|
---------------------------|---------------------------|
---------------------------|---------------------------|
---------------------------|---------------------------|
--2--2--5-5---8-8--8-7-7---|--2--2--5-5---8-8--8-7-7---|
--0--0--3-3---6-6--6-5-5---|--0--0--3-3---6-6--6-5-5---|

  E  E  S E.  E  E   E  E                                   
---------------------------|-------|-------|-------|-------|
---------------------------|-------|-------|-------|-------|
---------------------------|-------|-------|-------|-------|
---------------------------|-------|-------|-------|-------|
--2--2--5-5---8--8--10--7--|-------|-------|-------|-------|
--0--0--3-3---6--6---8--5--|-------|-------|-------|-------|

   S  S  S  S  S  S  S  S S S S S  S  S  S  S  
----------------------------------------------|
----------------------------------------------|
--11-11-11-11-11-11-11-11-9-9-9-9-11-11-12-12-|
----------------------------------------------|
---9--9--9--9--9--9--9--9-7-7-7-7--9--9-10-10-|
----------------------------------------------|

   S  S  S  S  S  S  S  S  S  S  S  S  S  S  S  S  
--------------------------------------------------|
--------------------------------------------------|
--11-11-11-11-11-11-11-11-14-14-14-14-12-12-11-11-|
--------------------------------------------------|
---9--9--9--9--9--9--9--9-12-12-12-12-10-10--9--9-|
--------------------------------------------------|

   S  S  S  S S S S S S S S S S S S S  
--------------------------------------|
--------------------------------------|
--12-12-12-12-7-7-7-7-6-6-6-6-7-7-9-9-|
--------------------------------------|
--10-10-10-10-5-5-5-5-4-4-4-4-5-5-7-7-|
--------------------------------------|

  S S S S  S  S S S S  S  S  S  S  S S S  
-----------------------------------------|
-----------------------------------------|
--7-7-7-7-11-11-9-9-9-12-12-12-11-11-9-9-|
-----------------------------------------|
--5-5-5-5--9--9-7-7-7-10-10-10--9--9-7-7-|
-----------------------------------------|

   S  S  S  S  S  S  S  S S S S S  S  S  S  S  
----------------------------------------------|
----------------------------------------------|
--11-11-11-11-11-11-11-11-9-9-9-9-11-11-12-12-|
----------------------------------------------|
---9--9--9--9--9--9--9--9-7-7-7-7--9--9-10-10-|
----------------------------------------------|

   S  S  S  S  S  S  S  S  S  S  S  S  S  S  S  S  
--------------------------------------------------|
--------------------------------------------------|
--11-11-11-11-11-11-11-11-14-14-14-14-12-12-11-11-|
--------------------------------------------------|
---9--9--9--9--9--9--9--9-12-12-12-12-10-10--9--9-|
--------------------------------------------------|

   S  S  S  S S S S S S S S S S S S S    S S S S S S S S S S  S  S  S  S S S  
--------------------------------------|--------------------------------------|
--------------------------------------|--------------------------------------|
--12-12-12-12-7-7-7-7-6-6-6-6-7-7-9-9-|--7-7-7-7-7-7-7-7-7-7-11-11-11-11-9-9-|
--------------------------------------|--------------------------------------|
--10-10-10-10-5-5-5-5-4-4-4-4-5-5-7-7-|--5-5-5-5-5-5-5-5-5-5--9--9--9--9-7-7-|
--------------------------------------|--------------------------------------|

   H        H           Q      Q     Q     Q        Q    Q    E  E  E  E   
---------------------|--------------------------|-------------------------|
---------------------|--------------------------|-------------------------|
--11--------9--------|--7S----14----12----11----|--12----7----6--6--7--9--|
---------------------|--------------------------|-------------------------|
---9--------7--------|--5S----12----10-----9----|--10----5----4--4--5--7--|
---------------------|--------------------------|-------------------------|

  H        E   E   E   E      S  S  S  S  S  S  S  S S S S S  S  S  S  S  
--------------------------|----------------------------------------------|
--------------------------|----------------------------------------------|
--7-----------14--14--14--|--11-11-11-11-11-11-11-11-9-9-9-9-11-11-12-12-|
--------------------------|----------------------------------------------|
--5-----------12--12--12--|---9--9--9--9--9--9--9--9-7-7-7-7--9--9-10-10-|
--------------------------|----------------------------------------------|

   S  S  S  S  S  S  S  S  S  S  S  S  S  S  S  S  
--------------------------------------------------|
--------------------------------------------------|
--11-11-11-11-11-11-11-11-14-14-14-14-12-12-11-11-|
--------------------------------------------------|
---9--9--9--9--9--9--9--9-12-12-12-12-10-10--9--9-|
--------------------------------------------------|

   S  S  S  S S S S S S S S S S S S S    S S S S  S  S S S S  S  S  S Q      
--------------------------------------|-------------------------------------|
--------------------------------------|-------------------------------------|
--12-12-12-12-7-7-7-7-6-6-6-6-7-7-9-9-|--7-7-7-7-11-11-9-9-9-12-12-12-x\----|
--------------------------------------|-------------------------------x\----|
--10-10-10-10-5-5-5-5-4-4-4-4-5-5-7-7-|--5-5-5-5--9--9-7-7-7-10-10-10-x\----|
--------------------------------------|-------------------------------------|

  H        H            E  S S S E.  E  S S S E.   
---------------------|----------------------------|
---------------------|---------x-6----------x-5---|
-----------x\--------|---------x-4----------x-3---|
-----------x\--------|---------x------------x-----|
-----------x\--------|--2--2-2-------2--2-2-------|
---------------------|--0--0-0-------0--0-0-------|


                    PM   PM   PM                               
  E  S S S E.  E  S S  S S  S S     E  S S S E.  E  S S S E.   
---------------------------------|----------------------------|
---------x-6---------------------|---------x-6----------x-5---|
---------x-4---------------------|---------x-4----------x-3---|
---------x-----------------------|---------x------------x-----|
--2--2-2-------2--2-2--x-3----3--|--2--2-2-------2--2-2-------|
--0--0-0-------0--0-0--x-1----1--|--0--0-0-------0--0-0-------|


                    PM   PM   PM    PM PM    PM        PM       PM    
  E  S S S E.  E  S S  S S  S S     S  S  E  S  E  S S S  E  E  S  S  
---------------------------------|---------------------------3-------|
---------x-6---------------------|--------6-----5--6-L----5--3-----6-|
---------x-4---------------------|--------4-----3--4-L----3--------4-|
---------x-----------------------|-----------------------------------|
--2--2-2-------2--2-2--x-3----3--|-----------------------------------|
--0--0-0-------0--0-0--x-1----1--|--0--0-----0---------0--------0----|


  PM PM    PM        PM                 PM PM    PM        PM       PM    
  S  S  E  S  E  S S S  E  S  S S  S    S  S  E  S  E  S S S  E  E  S  S  
-------------------------------------|---------------------------3-------|
--------6-----5--6-L----5------------|--------6-----5--6-L----5--3-----6-|
--------4-----3--4-L----3------------|--------4-----3--4-L----3--------4-|
---------------------------2p-0-L--L-|-----------------------------------|
--------------------------------2S-1-|-----------------------------------|
--0--0-----0---------0---------------|--0--0-----0---------0--------0----|


  PM PM    PM        PM                 PM PM    PM        PM       PM    
  S  S  E  S  E  S S S  E  S  S S  S    S  S  E  S  E  S S S  E  E  S  S  
-------------------------------------|---------------------------3-------|
--------6-----5--6-L----5------------|--------6-----5--6-L----5--3-----6-|
--------4-----3--4-L----3------------|--------4-----3--4-L----3--------4-|
---------------------------2p-0-L--L-|-----------------------------------|
--------------------------------2S-1-|-----------------------------------|
--0--0-----0---------0---------------|--0--0-----0---------0--------0----|


  PM PM    PM        PM                 PM PM    PM        PM       PM    
  S  S  E  S  E  S S S  E  S  S S  S    S  S  E  S  E  S S S  E  E  S  S  
-------------------------------------|---------------------------3-------|
--------6-----5--6-L----5------------|--------6-----5--6-L----5--3-----6-|
--------4-----3--4-L----3------------|--------4-----3--4-L----3--------4-|
---------------------------2p-0-L--L-|-----------------------------------|
--------------------------------2S-1-|-----------------------------------|
--0--0-----0---------0---------------|--0--0-----0---------0--------0----|


  PM PM    PM        PM                                                
  S  S  E  S  E  S S S  E  S  S S  S                                   
-------------------------------------|-------|-------|-------|-------||
--------6-----5--6-L----5------------|-------|-------|-------|-------||
--------4-----3--4-L----3------------|-------|-------|-------|-------||
---------------------------2p-0-L--L-|-------|-------|-------|-------||
--------------------------------2S-1-|-------|-------|-------|-------||
--0--0-----0---------0---------------|-------|-------|-------|-------||

Duration Legend
---------------
W - whole
H - half
Q - quarter
E - 8th
S - 16th
T - 32nd
X - 64th
. - note dotted
|-n-|  - n-tuplets

Tablature Legend
----------------
L - tied note
x - dead note
g - grace note
(n) - ghost note
> - accentuded note
NH - natural harmonic
AH - artificial harmonic
TH - tapped harmonic
SH - semi harmonic
PH - pitch harmonic
h - hammer on
p - pull off
b - bend
br - bendRelease
pb - preBend
pbr - preBendRelease
brb - bendReleaseBend
\n/ - tremolo bar dip
\n - tremolo bar dive
-/n - tremolo bar Release up
/n\ - tremolo bar inverted dip
/n - tremolo bar return
-\n - tremolo bar Release down
S - shift slide
s - legato slide
/ -  slide into from below or out of upwards
\ -  slide into from above or out of downwards
~ - vibrato
W - wide vibrato
tr - trill
TP - tremolo picking
T - tapping
S - slap
P - pop
< - fade in
^ - brush up
v - brush down
Colaboración y revision:
  • Ana Duarte
151 reproducciones
    • ½ Tono
    • A
    • Bb
    • B
    • C
    • Db
    • D
    • Eb
    • E
    • F
    • F#
    • G
    • Ab
  • Adicionar à lista

    0 comentarios

    Ver todos os comentários

    ¿Conseguiste tocar?

    0 Tocaram 0 Ainda não

    Grave um vídeo tocando Linda ( part Aoi) e nos envie!

    00:00 / 00:00
    outros vídeos desta música
    repetir qualidade Automático
    Outros vídeos desta música
    00:00 / 00:00
    Automático
    OK