Cifra Club

Aprenda

Anti Pop

the GazettE

Tablatura: Principal (guitarra)
tono: C
(afinação D)

12b(x) = bend to note indicated
h      = hammer-on
p      = pulloff
\      = slide up
x      = mute string

|-------------------------------------10----------------------|
|-------------------------------------------------------------|
|----10----10-12b(13)-12-10-----10h12----12p10-10h12-10h12-10-|
|-12----12------------------12--------------------------------|
|-------------------------------------------------------------|
|-------------------------------------------------------------|

|--------------------------------------------------------------------|
|--------------------------------------------------------------------|
|-12b(13)r-10----12p10-----------------------------------------------|
|-------------12-------10h12-----------------------------------------|
|----------------------------12-10-8--12\----------------------------|
|-------------------------------------12\--0-3-0-5-0-3-0-5-03p0-5\12-|

|-----------------------------10-----------------------------10-10-|
|-----------------------------10-----------------------------10-10-|
|---------10------------10----10---------10------------10----10-10-|
|-9h10h12----12-9h10h12----12----9h10h12----12-9h10h12----12-------|
|------------------------------------------------------------------|
|------------------------------------------------------------------|

|-----------------------------x-10-----------------------------x-10-|
|-----------------------------x-10-----------------------------x-10-|
|---------10------------10----x-10---------10------------10----x-10-|
|-9h10h12----12-9h10h12----12------9h10h12----12-9h10h12----12------|
|-------------------------------------------------------------------|
|-------------------------------------------------------------------|

Composição de Ruki
Colaboración y revision:
  • Luis Fernando
122 reproducciones
    • ½ Tono
    • A
    • Bb
    • B
    • C
    • Db
    • D
    • Eb
    • E
    • F
    • F#
    • G
    • Ab
  • Adicionar à lista

    0 comentarios

    Ver todos os comentários

    ¿Conseguiste tocar?

    0 Tocaram 0 Ainda não

    Grave um vídeo tocando Anti Pop e nos envie!

    00:00 / 00:00
    outros vídeos desta música
    repetir qualidade Automático
    Outros vídeos desta música
    00:00 / 00:00
    Automático
    OK