Cifra Club

Aprenda

Cassis Uruha Solo

the GazettE

Tablatura: Principal (guitarra)
tono: F (con acordes en la forma de G) Afinación: D G C F A D
E|----------------------------|-----------12------------------|
B|--~~~~~~~~~~~~~~~~~~~~~~~~~~|~~---------12------------12-16-|
G|----------------------------|-----------12---------13-------|
D|----------------------------|--1----------------14----------|
A|----------------------------|-------------------------------|
E|----------------------------|-------------------------------|

E|-14b-----14b---14-14--14-12-|-11-12-11--11--14--------------|
B|----------------------------|---------14--12--10-9~-------9-|
G|----------------------------|---------------------------11--|
D|----------------------------|-------------------------------|
A|----------------------------|-------------------------------|
E|----------------------------|-------------------------------|

E|------------------------------|--------------12-------12-14-|
B|-10b-----10b--10-9-7-9-7-7----|--------------12-----14------|
G|------------------------9-8---|--------------12-------------|
D|---------------------------9--|-----------------------------|
A|----------------------------9-|-6---6-----------------------|
E|------------------------------|-----------------------------|

E|-14b------14-12-11---12~---14-|--------------------------11-|
B|------------------------------|-12~-----------------12-14---|
G|------------------------------|---------------13------------|
D|------------------------------|-----------------------------|
A|------------------------------|-----------------------------|
E|------------------------------|-----------------------------|

E|-12---------12-------11-12-14-|-14~-----14--14-12-11-12~----|
B|------------12----------------|-----------------------------|
G|------------12----------------|-----------------------------|
D|------------------------------|-----------------------------|
A|------------------------------|-----------------------------|
E|------------------------------|-----------------------------|

Composição de Uruha
Colaboración y revision:
  • Caique Moreira
297 reproducciones
    • ½ Tono
    • A
    • Bb
    • B
    • C
    • Db
    • D
    • Eb
    • E
    • F
    • F#
    • G
    • Ab
  • Adicionar à lista

    0 comentarios

    Ver todos os comentários

    ¿Conseguiste tocar?

    1 Tocaram 0 Ainda não

    Grave um vídeo tocando Cassis Uruha Solo e nos envie!

    00:00 / 00:00
    outros vídeos desta música
    repetir qualidade Automático
    Outros vídeos desta música
    00:00 / 00:00
    Automático
    OK