Cifra Club

Cassis

the GazettE

Cifrado: Principal (guitarra y guitarra eléctrica)
tono: C (con acordes en la forma de D) Afinación: D G C F A D
(guitara 1) (Acoustic Steel)  - Aoi
(guitara 2) (Distorted)       - Uruha

(intro)

(riff inicial) (com violão)
E|---4-------4----4--2-----4-|
B|-------7---------------2---|
G|-----6----4----------------|
D|-4------------2---2--------|
A|---------------------------|
E|---------------------------|

E|-------4--------------------0---|
B|---4------4---------0---0-------|
G|-----4------4-----------------8-|
D|-4------------4---6---6---6-----|
A|----------------7---------------|
E|--------------------------------|

E|---4-------4----4--2-----4-|
B|-------7---------------2---|
G|-----6----4----------------|
D|-4------------2---2--------|
A|---------------------------|
E|---------------------------|

E|-------4-----------|
B|---4------4--------|
G|-----4------4------|
D|-4------------4----|
A|----------------2--|
E|-------------------|


(guitara 1)

    (intro) Bm      G       A     D  Dmaj7
E|-2-2-2-2------------------------------|
B|-3-3-3-3-----------------7-7-7-7------|
G|-4-4-4-4-4-4-4-4-6-6-6-6-7-7-7-7------|
D|-4-4-4-4-5-5-5-5-7-7-7-7-7-7-7-7------| x4
A|-2-2-2-2-5-5-5-5-7-7-7-7-5-5-4-4------|
E|---------3-3-3-3-5-5-5-5--------------|

(guitara 2)
E|-10------9----10----12-----10-----9---|
B|-10-----10----10----10-----10----10---|
G|-11-x16--9-x8-11-x8-11-x16-11-x8--9-x8|
D|--9-----11-----9-----9------9----11---| x4
A|--------------------------------------|
E|--------------------------------------|

Bm7    G       A       Dm C#m  Bm7    G    A           Dm  C#m
Ah... zutto kurikaeshiteta zutto kanashimasete bakari datta
Bm7    G       A       Dm C#m  Bm7     G    A        Bm7 G A Dm C#m
Ah... kitto anata sae mo kizutsukete boku wa ugokenu mama

(Bm7 G A Dm C#)

Ah... anata ni fureru koto ga naze konna ni kurushii no desu ka?
Kitto onaji koto wo kurikaeshi anata wo ushinatteshimau no ga kowakatta kara

Yorisou koto de nuguou toshite wasurekirenakatta hi wo
Anata wa nanimo kikazu ni koto te wo nigittekureta ne

(Bm7 F#7 G A)

Ashita anata no kimochi ga hanaretemo
Kitto kawarazu ai shiteiru
Ashita anata ni boku ga mienakutemo
Kitto kawarazu ai shiteiru

(G F#7 Bm7)

I will walk together, the future not promised yeah
It keeps walking together, to the future in which you are

(Bm7 F#7 G A)

Tsurai koto sae wasureru kurai
Anata wo omotteiru
Aenai yoru wo kazoeru tabini
Kogareru mune

(Bm7 G A Dm C#m)

Kakechigai no sabishisa tsunoru douka hitorikiri de nakanaide
Donna ni hanareteitemo shinjiaeru futari de iyou

(Bm7 F#7 G A)

Douka kono mama waratteitai
Anata wo kizutsukesasenaide
Toki ga tatsu tabi usureteitta
Anna omoi kurikaeshitakunai

Ashita anata no kimochi ga hanaretemo
Kitto kawarazu aishiteiru
Ashita anata ni boku ga mienakutemo
Kitto kawarazu ai shiteiru

Douka boku dake wo mitsumetete
Douka kono te ga tokenu you

(G F#7 Bm7)

I will walk together, the future not promised yeah
It keeps walking together, to the future in which you are
Composición de The Gazette
3.493 vistas
    • ½ Tono
    • A
    • Bb
    • B
    • C
    • Db
    • D
    • Eb
    • E
    • F
    • F#
    • G
    • Ab
  • Agregar a la lista

    0 comentarios

    Ver todos los comentarios

    ¿Lograste tocar?

    4 Tocaron 1 Aún no

    ¡Graba un video tocando Cassis y envíanoslo!

    00:00 / 00:00
    Outros vídeos desta música
    Repetir Calidad Automático
    Outros vídeos desta música
    00:00 / 00:00
    Automático
    OK