Cifra Club

Aprenda

Chizuru

the GazettE

Tablatura: Principal (guitarra)
tono: C
intro
verse
-----------------------------|--------------------|-------------------------|--------------|------------------------|
------3---3-3------------2---|--------------------|----------5---3----2-----|---3---2---3--|------3---2---------2---|
------------------4----------|-------2---3--------|------4------------------|--------------|---------------4--------|
-----------------------------|----4----------4----|-------------------------|--------------|------------------------|
-----------------------------|--------------------|-------------------------|--------------|------------------------|
-----------------------------|--------------------|-------------------------|--------------|------------------------|

-----------------------------|---2------------------|------------------------||
---------------2---3---5-----|----------------------|--5--3--2---3---3-------||
------------4----------------|--------4-------------|------------------------||
-----------------------------|-------------------4--|------------------------||
-----------------------------|----------------------|------------------------||
-----------------------------|----------------------|------------------------||

------------------------------|----------------------|-----------------------|-----------------------------||
----------------3---3-----2---|-------2---2---3------|----------5---3----2---|------------3---2----2----3--||
------------------------4-----|---4----------------4-|------4----------------|-----------------------------||
------------------------------|----------------------|-----------------------|-----------------------------||
------------------------------|----------------------|-----------------------|-----------------------------||

-------------------------------|----------------------|---2-------------------------|---2----------------|
------------2----3--2-------2--|-----3----2---3----5--|---------------3----3-----5--|--------5----3----2-|
------------------------4------|----------------------|--------4--------------------|--------------------|
-------------------------------|----------------------|-----------------------------|--------------------|
-------------------------------|----------------------|-----------------------------|--------------------|
-------------------------------|----------------------|-----------------------------|--------------------|

-------------------------------|-----------------------|--------------------------|--------------------|--------------------|
--------2---3--2------------2--|-----2---3--2----------|-----------5---3-----2----|-----3---2----2--3--|----2----2-------2--|
-------------------4---4-------|-------------------4---|---------4----------------|--------------------|------------4-------|
-------------------------------|-----------------------|--------------------------|--------------------|--------------------|
-------------------------------|-----------------------|--------------------------|--------------------|--------------------|
-------------------------------|-----------------------|--------------------------|--------------------|--------------------|

-------------------------------|---2---------------------|---------------------|-------------------
---------3---------2--3----5---|------4------------------|---5---3--2---3---2--|-------------3-----
-------------------------------|----------------------4--|---------------------|-------------------
-------------------------------|-------------------------|---------------------|-------------------
-------------------------------|-------------------------|---------------------|-------------------
-------------------------------|-------------------------|---------------------|-------------------
Composição de Uruha
Colaboración y revision:
  • allan nascimento
275 reproducciones
    • ½ Tono
    • A
    • Bb
    • B
    • C
    • Db
    • D
    • Eb
    • E
    • F
    • F#
    • G
    • Ab
  • Adicionar à lista

    0 comentarios

    Ver todos os comentários

    ¿Conseguiste tocar?

    5 Tocaram 0 Ainda não

    Grave um vídeo tocando Chizuru e nos envie!

    00:00 / 00:00
    outros vídeos desta música
    repetir qualidade Automático
    Outros vídeos desta música
    00:00 / 00:00
    Automático
    OK