Cifra Club

Aprenda

Dim Scene

the GazettE

Tablatura: Principal (guitarra)
tono: D
(intro 2x)

E|--------14------------14-------------------------
B|--12-----------12-----------12-------------------
G|-------------------------------------------------
D|-------------------------------------------------   (2x)
A|-------------------------------------------------
E|-------------------------------------------------

E|--------15------------15-------------------------
B|--12-----------12-----------12-------------------
G|-------------------------------------------------
D|-------------------------------------------------   (2x)
A|-------------------------------------------------
E|-------------------------------------------------

E|--------17------------17-------------------------
B|--12-----------12-----------12-------------------
G|-------------------------------------------------
D|-------------------------------------------------   (2x)
A|-------------------------------------------------
E|-------------------------------------------------

E|--------15------------15-------------------------
B|--12-----------12-----------12-------------------
G|-------------------------------------------------
D|-------------------------------------------------
A|-------------------------------------------------
E|-------------------------------------------------

E|--------15------------14-------------------------
B|--12-----------12-----------12-------------------
G|-------------------------------------------------
D|-------------------------------------------------
A|-------------------------------------------------
E|-------------------------------------------------

(intro 2 - 2x)

E|---------------
B|---------------
G|-----15--------
D|-----16--------  (15x)
A|---------------
E|---------------

E|---------------
B|---------------
G|-----12--------
D|-----14--------  (7x)
A|---------------
E|---------------

E|---------------
B|---------------
G|-----11--------
D|-----12--------  (3x)
A|---------------
E|---------------

E|---------------
B|---------------
G|-----12--------
D|-----14--------  (3x)
A|---------------
E|---------------

(versos) (baixo / reita)

(modo 1)
E|-------------------------------------------------
B|-------------------------------------------------
G|-------------------------------------------------
D|-----------------------3----2---0----------------
A|--2---0---2---0---2------------------------------
E|-------------------------------------------------

(modo 2)
E|-------------------------------------------------
B|-------------------------------------------------
G|-------------------------------------------------
D|-----------------------2/--2/--------------------
A|--2---0---2---0---2------------------------------
E|-------------------------------------------------

(refrão)
E|-------------------------------------------------
B|-------------------------------------------------
G|-------------------------------------------------
D|-1-1-1-1-1-1-1-1-1-1-1-1-1-1---------------------
A|-1-1-1-1-1-1-1-1-1-1-1-1-1-1---------------------
E|-1-1-1-1-1-1-1-1-1-1-1-1-1-1---------------------

E|-------------------------------------------------
B|-------------------------------------------------
G|-2-2-2-2-2-2-2-2-2-2-2-2-2-2---------------------
D|-2-2-2-2-2-2-2-2-2-2-2-2-2-2---------------------
A|-2-2-2-2-2-2-2-2-2-2-2-2-2-2---------------------
E|-------------------------------------------------

E|-------------------------------------------------
B|-------------------------------------------------
G|-------------------------------------------------
D|-3-3-3-3-3-3-3-3-3-3-3-3-3-3---------------------
A|-3-3-3-3-3-3-3-3-3-3-3-3-3-3---------------------
E|-3-3-3-3-3-3-3-3-3-3-3-3-3-3---------------------

E|-------------------------------------------------
B|-------------------------------------------------
G|-------------------------------------------------
D|-4-4-4-4-4-4-4-4-4-4-4-4-4-4---------------------
A|-4-4-4-4-4-4-4-4-4-4-4-4-4-4---------------------
E|-4-4-4-4-4-4-4-4-4-4-4-4-4-4---------------------
Composição de The Gazette
Colaboración y revision:
  • Lucas silva
156 reproducciones
    • ½ Tono
    • A
    • Bb
    • B
    • C
    • Db
    • D
    • Eb
    • E
    • F
    • F#
    • G
    • Ab
  • Adicionar à lista

    0 comentarios

    Ver todos os comentários

    ¿Conseguiste tocar?

    0 Tocaram 0 Ainda não

    Grave um vídeo tocando Dim Scene e nos envie!

    00:00 / 00:00
    outros vídeos desta música
    repetir qualidade Automático
    Outros vídeos desta música
    00:00 / 00:00
    Automático
    OK