Cifra Club

Dln

the GazettE

Tablatura: Principal (guitarra)
tono: C
This is my first tab that I've ever written.

to.

I am writting only Aoi's part in this entry, Uruha's part will be in the next entry. Aoi 
rythm guitar, Uruha is lead.

You'd have to listen to the song to hear how fast to play or how slow, but, here's the tab.

(The "^"s mean upstroke.)


|-------------------2-------------0-----------|
|----3--------------------3-----------3-------|
|-------0--------------------------------0----|   x6
|----------4------------------4-------------4-|
|---------------------------------------------|
|0-------------0------------------------------|

|---------------------0--------|-----------------------0--------0----------|
|------------3-----------------|------------3-------------3--------3-------|
|---------0------------------0-|---------0-------------------0--------0----|
|------4-----------------4-----|------4----------------------------------4-|
|--3-------------3-------------|-------------------------------------------|
|------------------------------|--2-------------2-3------------------------|

|-------------------2-----------0----------|
|-----3-----------------3----------3-------|
|--------0----------------------------0----|   x2
|-----------4---------------4------------4-|
|------------------------------------------|
|-0-------------0--------------------------|

|--------------------0---------|-----------------------0--------0----------|
|------------3-----------------|------------3-------------3--------3-------|
|---------0------------------0-|---------0-------------------0--------0----|
|------4-----------------4-----|------4----------------------------------4-|
|--3-------------3-------------|-------------------------------------------|
|------------------------------|--2-------------2-3------------------------|

|---------------------------|
|-----------------3---------|
|--------0----------------0-|   x2
|-----4---------------4-----|
|---------------------------|
|--0----------0-------------|

|--------------------0---------|----------------------0--------0----------|
|------------3-----------------|------------3------------3--------3-------|
|---------0------------------0-|---------0------------------0--------0----|
|------4-----------------4-----|------4---------4-----------------------4-|
|--3-------------3-------------|------------------------------------------|
|------------------------------|--2----------------3----------------------|

|---------------------------|
|-----------------3---------|
|--------0----------------0-|   x2
|-----4---------------4-----|
|---------------------------|
|--0----------0-------------|

|--------------------0---------|----------------------0--------0----------|
|------------3-----------------|------------3------------3--------3-------|
|---------0------------------0-|---------0------------------0--------0----|
|------4-----------------4-----|------4---------4-----------------------4-|
|--3-------------3-------------|------------------------------------------|
|------------------------------|--2----------------3----------------------|

|--0----0---0-0---0-0-0-0---0-0-|-0----0---0-0---0-0-0-0---0-0-|
|--3----3---3-3---3-3-3-3---3-3-|-3----3---3-3---3-3-3-3---3-3-|
|--0----0---0-0---0-0-0-0---0-0-|-0----0---0-0---0-0-0-0---0-0-|
|--2----2---2-2---2-2-2-2---2-2-|-4----4---4-4---4-4-4-4---4-4-|
|--3----3---3-3---3-3-3-3---3-3-|-2----2---2-2---2-2-2-2---2-2-|
|-------------------------------|------------------------------|

|-0----0---0-0---0-0-0-0---0-0-|-0----0---0-0---0-0-0-0---0-0-|
|-0----0---0-0---0-0-0-0---0-0-|-3----3---3-3---3-3-3-3---3-3-|
|-0----0---0-0---0-0-0-0---0-0-|-0----0---0-0---0-0-0-0---0-0-|
|-2----2---2-2---2-2-2-2---2-2-|-4----4---4-4---4-4-4-4---4-4-|
|-2----2---2-2---2-2-2-2---2-2-|-2----2---2-2---2-2-2-2---2-2-|
|-0----0---0-0---0-0-0-0---0-0-|------------------------------|

|-0----0---0-0---0-0-0-0---0-0-|-0----0---0-0---0-0-0-0---0-0-|
|-3----3---3-3---3-3-3-3---3-3-|-3----3---3-3---3-3-3-3---3-3-|
|-0----0---0-0---0-0-0-0---0-0-|-0----0---0-0---0-0-0-0---0-0-|
|-2----2---2-2---2-2-2-2---2-2-|-4----4---4-4---4-4-4-4---4-4-|
|-3----3---3-3---3-3-3-3---3-3-|-2----2---2-2---2-2-2-2---2-2-|
|------------------------------|------------------------------|

|-0----0---0-0---0-0-0-0---0-0-|-0-0-0-0-0-0-0-0---------|
|-0----0---0-0---0-0-0-0---0-0-|-0-0-0-0-0-0-0-0---------|
|-0----0---0-0---0-0-0-0---0-0-|-0-0-0-0-0-0-0-0---------|
|-2----2---2-2---2-2-2-2---2-2-|-2-2-2-2-2-2-2-2---------|
|-2----2---2-2---2-2-2-2---2-2-|-2-2-2-2-2-2-2-2---------|
|-0----0---0-0---0-0-0-0---0-0-|-0-0-0-0-0-0-0-0---------|

|---------------------------|
|-----------------3---------|
|--------0----------------0-|   x2
|-----4---------------4-----|
|---------------------------|
|--0----------0-------------|

|--------------------0---------|----------------------0--------0----------|
|------------3-----------------|------------3------------3--------3-------|
|---------0------------------0-|---------0------------------0--------0----|
|------4-----------------4-----|------4---------4-----------------------4-|
|--3-------------3-------------|------------------------------------------|
|------------------------------|--2----------------3----------------------|

|---------------------------|
|-----------------3---------|
|--------0----------------0-|   x2
|-----4---------------4-----|
|---------------------------|
|--0----------0-------------|

|--------------------0---------|----------------------0--------0-0-0-0-|
|------------3-----------------|------------3------------3-----3-3-3-3-|
|---------0------------------0-|---------0------------------0--0-0-0-0-|
|------4-----------------4-----|------4---------4--------------4-4-4-4-|
|--3-------------3-------------|---------------------------------------|
|------------------------------|--2----------------3-------------------|

|--^0-------|--^0----------0-----|--^0----------0-----|--^2------2-----|
|--^0-------|--^2------------2---|--^3------------2---|--^2--------2---|
|--^0-------|--^0--------------0-|--^0--------------0-|--^3----------3-|
|--^2-------|--^3----------------|--^2----------------|--^4------------|
|--^2-------|--^2------2---------|--^3------3---------|--^4------------|
|--^0-------|--------------------|--------------------|--^2------------|

|--0----0---0-0---0-0-0-0---0-0-|-0----0---0-0---0-0-0-0---0-0-|
|--3----3---3-3---3-3-3-3---3-3-|-3----3---3-3---3-3-3-3---3-3-|
|--0----0---0-0---0-0-0-0---0-0-|-0----0---0-0---0-0-0-0---0-0-|
|--2----2---2-2---2-2-2-2---2-2-|-4----4---4-4---4-4-4-4---4-4-|
|--3----3---3-3---3-3-3-3---3-3-|-2----2---2-2---2-2-2-2---2-2-|
|-------------------------------|------------------------------|

|-0----0---0-0---0-0-0-0---0-0-|-0----0---0-0---0-0-0-0---0-0-|
|-0----0---0-0---0-0-0-0---0-0-|-3----3---3-3---3-3-3-3---3-3-|
|-0----0---0-0---0-0-0-0---0-0-|-0----0---0-0---0-0-0-0---0-0-|
|-2----2---2-2---2-2-2-2---2-2-|-4----4---4-4---4-4-4-4---4-4-|
|-2----2---2-2---2-2-2-2---2-2-|-2----2---2-2---2-2-2-2---2-2-|
|-0----0---0-0---0-0-0-0---0-0-|------------------------------|

|--0----0---0-0---0-0-0-0---0-0-|-0----0---0-0---0-0-0-0---0-0-|
|--3----3---3-3---3-3-3-3---3-3-|-3----3---3-3---3-3-3-3---3-3-|
|--0----0---0-0---0-0-0-0---0-0-|-0----0---0-0---0-0-0-0---0-0-|
|--2----2---2-2---2-2-2-2---2-2-|-4----4---4-4---4-4-4-4---4-4-|
|--3----3---3-3---3-3-3-3---3-3-|-2----2---2-2---2-2-2-2---2-2-|
|-------------------------------|------------------------------|

|-0----0---0-0---0-0-0-0---0-0-|-0----0---0-0---0-0-0-0---0-0-|
|-0----0---0-0---0-0-0-0---0-0-|-3----3---3-3---3-3-3-3---3-3-|
|-0----0---0-0---0-0-0-0---0-0-|-0----0---0-0---0-0-0-0---0-0-|
|-2----2---2-2---2-2-2-2---2-2-|-4----4---4-4---4-4-4-4---4-4-|
|-2----2---2-2---2-2-2-2---2-2-|-2----2---2-2---2-2-2-2---2-2-|
|-0----0---0-0---0-0-0-0---0-0-|------------------------------|

|--0----0---0-0---0-0-0-0---0-0-|-0----0---0-0---0-0-0-0---0-0-|
|--3----3---3-3---3-3-3-3---3-3-|-3----3---3-3---3-3-3-3---3-3-|
|--0----0---0-0---0-0-0-0---0-0-|-0----0---0-0---0-0-0-0---0-0-|
|--2----2---2-2---2-2-2-2---2-2-|-4----4---4-4---4-4-4-4---4-4-|
|--3----3---3-3---3-3-3-3---3-3-|-2----2---2-2---2-2-2-2---2-2-|
|-------------------------------|------------------------------|

|-0----0---0-0---0-0-0-0---0-0-|-0----0---0-0---0-0-0-0---0-0-|
|-0----0---0-0---0-0-0-0---0-0-|-3----3---3-3---3-3-3-3---3-3-|
|-0----0---0-0---0-0-0-0---0-0-|-0----0---0-0---0-0-0-0---0-0-|
|-2----2---2-2---2-2-2-2---2-2-|-4----4---4-4---4-4-4-4---4-4-|
|-2----2---2-2---2-2-2-2---2-2-|-2----2---2-2---2-2-2-2---2-2-|
|-0----0---0-0---0-0-0-0---0-0-|------------------------------|

|--0----0---0-0---0-0-0-0---0-0-|-0----0---0-0---0-0-0-0---0-0-|
|--3----3---3-3---3-3-3-3---3-3-|-3----3---3-3---3-3-3-3---3-3-|
|--0----0---0-0---0-0-0-0---0-0-|-0----0---0-0---0-0-0-0---0-0-|
|--2----2---2-2---2-2-2-2---2-2-|-4----4---4-4---4-4-4-4---4-4-|
|--3----3---3-3---3-3-3-3---3-3-|-2----2---2-2---2-2-2-2---2-2-|
|-------------------------------|------------------------------|

|-0----0---0-0---0-0-0-0---0-0-|--^0-------|
|-0----0---0-0---0-0-0-0---0-0-|--^3-------|
|-0----0---0-0---0-0-0-0---0-0-|--^0-------|
|-2----2---2-2---2-2-2-2---2-2-|--^4-------|
|-2----2---2-2---2-2-2-2---2-2-|--^2-------|
|-0----0---0-0---0-0-0-0---0-0-|-----------|


Then it goes into Reita's (Bassist) solo.


|--^0-------|---0----------0-----|---0----------0-----|--^2------|
|--^0-------|---3------------3---|---3------------3---|--^2------|
|--^0-------|---0--------------0-|---0--------------0-|--^3------|
|--^2-------|---2----------------|---2----------------|--^4------|
|--^2-------|---3------3---------|---3------3---------|--^4------|
|--^0-------|--------------------|--------------------|--^2------|

|--^0-------|---0----------0-----|---0----------0-----|--^2----------2----|
|--^0-------|---3------------3---|---3------------3---|--^2--2----------2-|
|--^0-------|---0--------------0-|---0--------------0-|--^3-----3---------|
|--^2-------|---2----------------|---2----------------|--^4---------------|
|--^2-------|---3------3---------|---3------3---------|--^4---------------|
|--^0-------|--------------------|--------------------|--^2---------------|

Pause for four seconds.

|-0----0---0-0---0-0-0-0---0-0-|-0----0---0-0---0-0-0-0---0-0-|
|-3----3---3-3---3-3-3-3---3-3-|-3----3---3-3---3-3-3-3---3-3-|
|-0----0---0-0---0-0-0-0---0-0-|-0----0---0-0---0-0-0-0---0-0-|
|-2----2---2-2---2-2-2-2---2-2-|-4----4---4-4---4-4-4-4---4-4-|
|-3----3---3-3---3-3-3-3---3-3-|-2----2---2-2---2-2-2-2---2-2-|
|------------------------------|------------------------------|
                                                                    x11
|-0----0---0-0---0-0-0-0---0-0-|-0----0---0-0---0-0-0-0---0-0-|
|-0----0---0-0---0-0-0-0---0-0-|-3----3---3-3---3-3-3-3---3-3-|
|-0----0---0-0---0-0-0-0---0-0-|-0----0---0-0---0-0-0-0---0-0-|
|-2----2---2-2---2-2-2-2---2-2-|-4----4---4-4---4-4-4-4---4-4-|
|-2----2---2-2---2-2-2-2---2-2-|-2----2---2-2---2-2-2-2---2-2-|
|-0----0---0-0---0-0-0-0---0-0-|------------------------------|

|-0----0---0-0---0-0-0-0---0-0-|-0----0---0-0---0-0-0-0---0-0-|
|-3----3---3-3---3-3-3-3---3-3-|-3----3---3-3---3-3-3-3---3-3-|
|-0----0---0-0---0-0-0-0---0-0-|-0----0---0-0---0-0-0-0---0-0-|
|-2----2---2-2---2-2-2-2---2-2-|-4----4---4-4---4-4-4-4---4-4-|
|-3----3---3-3---3-3-3-3---3-3-|-2----2---2-2---2-2-2-2---2-2-|
|------------------------------|------------------------------|

|--0---------------0-----0-----0-----0-----|-0----------0-|
|--0-----------3-----3-----3-----3-----3---|---3--------0-|
|--0-------------0-----------0-----------0-|------------0-|
|--2---------------------------------------|--------------|
|--2------2/4------------------------------|--------------|
|--0-------------------3-----------3-------|-----3--0-----|


Well, thats it. I hope this at least helps somewhat, I know It's hard to read sometimes.

Here's the lyrics to the song. Ta~ (All this written by Taka_Manako)
-------------------------------------------------------------------------------

(Repeated throughout the song) Song of the sheep in dark long night...

Hajime kara wakatteta dakara kanashikuwanai
Sukoshizutsu sukoshizutsu kazu wo kazoeru mitaine

Kusaki no kareru iroga boyake kisetsu no owari ga wakaranai

Ashiato wo nazoruhi wa ashiato wo kikuhi wo yondeiru wa
Nozomi mimoshinai watashi ni asu wa kaerarenai mono

Kusaki ga kareru oto wo tadori kisetsu no owari wo kanjiru
Hana ga iroduki sakihokoru koro watashi ni wa nani ga nokoru no

Tsuki ga katen wo tojiru demo taiyou ga watshi wo terasu no
Hajime kara wakatteta dakara kanashikuwanai

Megasame yoru ga owaranai kutemo sokoni kagayaku hoshi ga nakutemo
Machi wo irodoru akari tachi ga subete kietemo...
Mamorubeki hito no yorokobu kao mo aishita hito no saigo mo yuubuna hodo mitekoretakara 
iino.
176 reproducciones
    • ½ Tono
    • A
    • Bb
    • B
    • C
    • Db
    • D
    • Eb
    • E
    • F
    • F#
    • G
    • Ab
  • Adicionar à lista

    0 comentarios

    Ver todos os comentários

    ¿Conseguiste tocar?

    0 Tocaram 0 Ainda não

    Grave um vídeo tocando Dln e nos envie!

    00:00 / 00:00
    outros vídeos desta música
    repetir qualidade Automático
    Outros vídeos desta música
    00:00 / 00:00
    Automático
    OK