Cifra Club

Juuyon Sai No Knife

the GazettE

Tab de bajo: Principal
(intro)                                                                           
E|-------------------------------|          |----------------------|
D|-------------------------------|          |----------------------|
A|--------0-1-0-------0-1-1------|          |-------0-1-0-2-3-2----|
G|--0-0-3-------3-0-0------------| [x4]     |-0-0-3-------------3--| (add to the last line)

(chorus)                                           <-- alternate-->
e|-------------------------------|---------|----------|
d|-------------------------------|---------|----------|
a|----------------------3-3-3-3--|-2-0-----|--2-3-2---|
G|-0-0-0-0-3-3-3-3--2-3----------|-----3-2-|--------3-| [x4] 

(verse 1)                                                   
E|------------------------------2-|          |--------------------------------|
D|----------------------2---0-3---|          |---------------------2----------|
A|--------0-0-------0-3---3-------|          |-------0-0-------0-3---3-2-3-2--|
G|--0-3-3-----3-2-3---------------| [x3]     |-0-3-3-----3-2-3----------------|(add)

(repeat chorus) 

(repeat verse 1) 

(verse 2)
e|---------------------------------------------------------------------|
d|-2-2------------2-0-0-----------0------------------------------------|
a|-----2-2--0-0-0-------0-0----------3-3~8-8---------------------------|
G|--------------------------3-3-3------------2-2~8-8--7-7-7-7--0-2-3-2-|-0-3-0-| [x2] (add to end)  

(verse 3)
e|------------------------------------------------------------4-2-0----|-------------|
d|-----------------------0------------------------5-4-4-----4-------4--|----2-2-2-2-|
a|---------2-2-2---3-3-3------------------5-----5----------------------|-2-2---------|
G|-0-0-0-3-------3---------3-3-3-3--5-5-5---5-3-----3-2-2-2------------|----|[x2] (add to the end) 

(verse 4)
e|-------------------------------------------------------------------------|
d|-----------------------0-------------------------------------------------|
a|---------2-2-2---3-3-3----------0-0-0-7-0--------------------------------|
G|-0-0-0-3-------3----------3-3-3-----------3-3~15-15-14-14-7-7-12-12-12-12| [x1] 

(repeat chorus)

(solo)
E|--------------------------|           |--------------------------------------|
D|--------------------------|          |--------------------------------------|
A|-------0-1-0-------0-1-1--|          |-9-9-12-14-15-14-12-9-9-9-7-9-9-9-9---|
G|-0-0-3-------3-0-0--------| [x4]    |--------------------------------------| (add to last ending)

e|-------------------------------------------------------------------------------------------------|
d|---------------2-2-----------------------2-2-------------------------2-2-------------------------|
a|-------0-1-0-1-----1-0-1-1-------0-1-0-1-----1-0-13-13-------0-1-0-1-----1-0-1-1-------0-1-2-3-2-|
g|-0-0-3---------------------0-0-3-----------------------0-0-3----------------------0-0-3---------3|

(repeat verse 1)
On the last note fade out.   

(pause) 

(repeat verse 2)

e|-------------------------------------------------------4-2-0----|
d|------------------------------------------5---------4--------4--|
a|-2-------2---3--9-9-9-12-9-8-9--0-5-0---5-----------------------|
G|---0-0-3---3--------------------------3-----3-2-2-2-------------| [x1]

(repeat verse 4) 
E|--------------|      
d|--------------|
a|-2---2--------|
G|---3---3------|[x1]  (add to the last line)
               
(repeat verse 3) [x1] <--one time
e|------------------------------------------------------------------------|
d|-----------------------0------------------------------------------------|
a|---------2-2-2---3-3-3----------0-0-0-7-0-------------------------------|
g|-0-0-0-3-------3---------3-3-3------------3-3~15-15-14-14-7-7-12-10-8-7-|[x1]

e|----------------------------------------|
d|----------------------------------------|
a|-0-0-0-7-0--------------7-7-7-----------|
G|-----------3-3~15-15-14-----------------| [x1] 

(repeat chorus)
e|-----------------------------------------|
d|-----------------------------------------|
a|-3-2-3-2--3-2-3-2--3-2-3-2--3-2-3-2------|
G|------------------------------------3-0~~| [x1] 


Colaboración y revision:
  • Luis Fernando
49 reproducciones

0 comentarios

Ver todos os comentários

¿Conseguiste tocar?

0 Tocaram 0 Ainda não

Grave um vídeo tocando Juuyon Sai No Knife e nos envie!

00:00 / 00:00
outros vídeos desta música
repetir qualidade Automático
Outros vídeos desta música
00:00 / 00:00
Automático
OK