Cifra Club

Aprenda

Kare Uta

the GazettE

Tablatura: Principal (guitarra)
tono: E
VERSO
              S  S S  S  E  S  E  S  E   E   S  S  
D||-------|---------------------------------------|
A||-------|---------------------------------------|
F||-------|--11-11---11-11----11----11--11--11-11-|
C||-------|---------------------------------------|
G||-------|---9--9----9--9-----9-----9---9---9--9-|
D||-------|---------------------------------------|


   S  S S  S  E  S  E  S  E   S  E    S     S  S S  S  E  S  E  S  E   S  E  S  
----------------------------------------|--------------------------------------|
----------------------------------------|--------------------------------------|
--11-11---11-11----11----11--11S-9S--11-|--11-11---11-11----11----11--11S-9--9-|
----------------------------------------|--------------------------------------|
---9--9----9--9-----9-----9---9S-7S---9-|---9--9----9--9-----9-----9---9S-7--7-|
----------------------------------------|--------------------------------------|

  S S  S S S S  S S S S S S S S   S  S     S  S S  S  E  S  E  S  E   E   S  S  
---------------------------------------|---------------------------------------|
---------------------------------------|---------------------------------------|
--9-9S-7-7-7-7S-6-6-6-6-6-6-6-6S-11-11-|--11-11---11-11----11----11--11--11-11-|
---------------------------------------|---------------------------------------|
--7-7S-5-5-5-5S-4-4-4-4-4-4-4-4S--9--9-|---9--9----9--9-----9-----9---9---9--9-|
---------------------------------------|---------------------------------------|

   S  S S  S  E  S  E  S  E   S  E    S     S  S S  S  E  S  E  S  E   S  E  S  
----------------------------------------|--------------------------------------|
----------------------------------------|--------------------------------------|
--11-11---11-11----11----11--11S-9S--11-|--11-11---11-11----11----11--11S-9--9-|
----------------------------------------|--------------------------------------|
---9--9----9--9-----9-----9---9S-7S---9-|---9--9----9--9-----9-----9---9S-7--7-|
----------------------------------------|--------------------------------------|

  S S  S S S S  S S S S S S S S   S  S     S  S S  S  E  S  E  S  E   E   S  S  
---------------------------------------|---------------------------------------|
---------------------------------------|---------------------------------------|
--9-9S-7-7-7-7S-6-6-6-6-6-6-6-6S-11-11-|--11-11---11-11----11----11--11--11-11-|
---------------------------------------|---------------------------------------|
--7-7S-5-5-5-5S-4-4-4-4-4-4-4-4S--9--9-|---9--9----9--9-----9-----9---9---9--9-|
---------------------------------------|---------------------------------------|

   S  S S  S  E  S  E  S  E   S  E    S     S  S S  S  E  S  E  S  E   S  E  S  
----------------------------------------|--------------------------------------|
----------------------------------------|--------------------------------------|
--11-11---11-11----11----11--11S-9S--11-|--11-11---11-11----11----11--11S-9--9-|
----------------------------------------|--------------------------------------|
---9--9----9--9-----9-----9---9S-7S---9-|---9--9----9--9-----9-----9---9S-7--7-|
----------------------------------------|--------------------------------------|

  S S  S S S S  S S S S S S S S   S  S     S  S S  S  E  S  E  S  E   E   E   
---------------------------------------|-------------------------------------|
---------------------------------------|-------------------------------------|
--9-9S-7-7-7-7S-6-6-6-6-6-6-6-6S-11-11-|--11-11---11-11----11----11--11--11--|
---------------------------------------|-------------------------------------|
--7-7S-5-5-5-5S-4-4-4-4-4-4-4-4S--9--9-|---9--9----9--9-----9-----9---9---9--|
---------------------------------------|-------------------------------------|

                                        ESTROFE
  W                   W                   E  S S E  E  S E  E.  S S  
-------------------|-------------------|----------------------------|
-------------------|-------------------|-----7---7-----7--------7---|
--9----------------|--L----------------|-------9----9-------9-------|
-------------------|-------------------|----------------------------|
--7----------------|--L----------------|----------------------------|
-------------------|-------------------|----------------------------|

  E  E.  E  S E  S E  S E     E  S S E  E  E  E  E  E   
---------------------------|---------------------------|
-----7--------7---------7--|-----5---------5-----------|
---------9---------9-------|-------6-7--6-----7--6--7--|
---------------------------|---------------------------|
---------------------------|---------------------------|
---------------------------|---------------------------|

  E  S E  S E  E  S E  S E     E  S S E  E  S E  E.  S S  
----------------------------|----------------------------|
---------------5------------|-----7---7-----7--------7---|
-----7-6------------6----7--|-------9----9-------9-------|
------------4---------------|----------------------------|
----------------------------|----------------------------|
----------------------------|----------------------------|

  E  E.  E  S E  S E  S E     E  S S E  E  E  E  E  E   
---------------------------|---------------------------|
-----7--------7---------7--|-----5---------5-----------|
---------9---------9-------|-------6-7--6-----7--6--7--|
---------------------------|---------------------------|
---------------------------|---------------------------|
---------------------------|---------------------------|

  E  S E  S E  E  S E  S E     E  S S E  E  S E  E.  S S  
----------------------------|----------------------------|
---------------5------------|-----7---7-----7--------7---|
-----7-6------------6----7--|-------9----9-------9-------|
------------4---------------|----------------------------|
----------------------------|----------------------------|
----------------------------|----------------------------|

  E  E.  E  S E  S E  S E     E  S S E  E  E  E  E  E   
---------------------------|---------------------------|
-----7--------7---------7--|-----5---------5-----------|
---------9---------9-------|-------6-7--6-----7--6--7--|
---------------------------|---------------------------|
---------------------------|---------------------------|
---------------------------|---------------------------|

  E  S E  S E  E  S E  S E     E  S S E  E  S E  E.  S S  
----------------------------|----------------------------|
---------------5------------|-----7---7-----7--------7---|
-----7-6------------6----7--|-------9----9-------9-------|
------------4---------------|----------------------------|
----------------------------|----------------------------|
----------------------------|----------------------------|

  E  E.  E  S E  S E  S E     E  S S E  E  E  E  E  E   
---------------------------|---------------------------|
-----7--------7---------7--|-----5---------5-----------|
---------9---------9-------|-------6-7--6-----7--6--7--|
---------------------------|---------------------------|
---------------------------|---------------------------|
---------------------------|---------------------------|

                              PRE REFRAO
                                     PM PM PM PM PM     
  E  S E  S E  E  S E  S E     E  E  E  E  E  E  E  E   
----------------------------|--------------------------|
---------------7------------|--7--7--7--7--7--7--7--7--|
-----7-6------------7----4--|--7--7--7--7--7--7--7--7--|
------------4---------------|--5--5--5--5--5--5--5--5--|
----------------------------|--------------------------|
----------------------------|--------------------------|

  PM PM PM PM PM PM                PM PM PM PM PM     
  E  E  E  E  E  E  E  E     E  E  E  E  E  E  E  E   
--------------------------|--------------------------|
--7--7--7--7--7--7--7--7--|--3--3--3--3--3--3--3--3--|
--7--7--7--7--7--7--7--7--|--4--4--4--4--4--4--4--4--|
--5--5--5--5--5--5--5--5--|--4--4--4--4--4--4--4--4--|
--------------------------|--------------------------|
--------------------------|--------------------------|

  PM PM PM PM PM PM                PM PM PM PM PM     
  E  E  E  E  E  E  E  E     E  E  E  E  E  E  E  E   
--------------------------|--------------------------|
--3--3--3--3--3--3--3--3--|--7--7--7--7--7--7--7--7--|
--4--4--4--4--4--4--4--4--|--7--7--7--7--7--7--7--7--|
--4--4--4--4--4--4--4--4--|--5--5--5--5--5--5--5--5--|
--------------------------|--------------------------|
--------------------------|--------------------------|

  PM PM PM PM PM PM                PM PM PM PM PM     
  E  E  E  E  E  E  E  E     E  E  E  E  E  E  E  E   
--------------------------|--------------------------|
--7--7--7--7--7--7--7--7--|--3--3--3--3--3--3--3--3--|
--7--7--7--7--7--7--7--7--|--4--4--4--4--4--4--4--4--|
--5--5--5--5--5--5--5--5--|--4--4--4--4--4--4--4--4--|
--------------------------|--------------------------|
--------------------------|--------------------------|

  PM                               PM PM PM PM PM     
  E  E  E  E  E  E  E  E     E  E  E  E  E  E  E  E   
--------------------------|--------------------------|
--3--3--3--3--3--3--3--3--|--7--7--7--7--7--7--7--7--|
--4--4--4--4--4--4--4--4--|--7--7--7--7--7--7--7--7--|
--4--4--4--4--4--4--4--4--|--5--5--5--5--5--5--5--5--|
--------------------------|--------------------------|
--------------------------|--------------------------|

  PM PM PM PM PM PM                PM PM PM PM PM     
  E  E  E  E  E  E  E  E     E  E  E  E  E  E  E  E   
--------------------------|--------------------------|
--7--7--7--7--7--7--7--7--|--3--3--3--3--3--3--3--3--|
--7--7--7--7--7--7--7--7--|--4--4--4--4--4--4--4--4--|
--5--5--5--5--5--5--5--5--|--4--4--4--4--4--4--4--4--|
--------------------------|--------------------------|
--------------------------|--------------------------|

  PM PM PM PM PM PM                PM PM PM PM PM     
  E  E  E  E  E  E  E  E     E  E  E  E  E  E  E  E   
--------------------------|--------------------------|
--3--3--3--3--3--3--3--3--|--7--7--7--7--7--7--7--7--|
--4--4--4--4--4--4--4--4--|--7--7--7--7--7--7--7--7--|
--4--4--4--4--4--4--4--4--|--5--5--5--5--5--5--5--5--|
--------------------------|--------------------------|
--------------------------|--------------------------|

  PM PM PM PM PM PM                PM PM PM PM PM     
  E  E  E  E  E  E  E  E     E  E  E  E  E  E  E  E   
--------------------------|--------------------------|
--7--7--7--7--7--7--7--7--|--3--3--3--3--3--3--3--3--|
--7--7--7--7--7--7--7--7--|--4--4--4--4--4--4--4--4--|
--5--5--5--5--5--5--5--5--|--4--4--4--4--4--4--4--4--|
--------------------------|--------------------------|
--------------------------|--------------------------|

                             refrao
  PM PM PM                                                           
  E  E  E  E  E  E  E  E      S  S S  S  E  S  E  S  E   S  E    S  
--------------------------|----------------------------------------|
--3--3--3--3--3--3--3--3--|----------------------------------------|
--4--4--4--4--4--4--4--4--|--11-11---11-11----11----11--11S-9S--11-|
--4--4--4--4--4--4--4--4--|----------------------------------------|
--------------------------|---9--9----9--9-----9-----9---9S-7S---9-|
--------------------------|----------------------------------------|

   S  S S  S  E  S  E  S  E   S  E    S     S  S S  S  E  S  E  S  E   S  E  S  
----------------------------------------|--------------------------------------|
----------------------------------------|--------------------------------------|
--11-11---11-11----11----11--11S-9S--11-|--11-11---11-11----11----11--11S-9--9-|
----------------------------------------|--------------------------------------|
---9--9----9--9-----9-----9---9S-7S---9-|---9--9----9--9-----9-----9---9S-7--7-|
----------------------------------------|--------------------------------------|

  S S  S S S S  S S S S S S S S   S  S  
---------------------------------------|
---------------------------------------|
--9-9S-7-7-7-7S-6-6-6-6-6-6-6-6S-11-11-|
---------------------------------------|
--7-7S-5-5-5-5S-4-4-4-4-4-4-4-4S--9--9-|
---------------------------------------|

   S  S S  S  E  S  E  S  E   S  E    S  
----------------------------------------|
----------------------------------------|
--11-11---11-11----11----11--11S-9S--11-|
----------------------------------------|
---9--9----9--9-----9-----9---9S-7S---9-|
----------------------------------------|

   S  S S  S  E  S  E  S  E   S  E    S     S  S S  S  E  S  E  S  E   S  E  S  
----------------------------------------|--------------------------------------|
----------------------------------------|--------------------------------------|
--11-11---11-11----11----11--11S-9S--11-|--11-11---11-11----11----11--11S-9--9-|
----------------------------------------|--------------------------------------|
---9--9----9--9-----9-----9---9S-7S---9-|---9--9----9--9-----9-----9---9S-7--7-|
----------------------------------------|--------------------------------------|

  S S  S S S S  S S S S S S S S   S  S  
---------------------------------------|
---------------------------------------|
--9-9S-7-7-7-7S-6-6-6-6-6-6-6-6S-11-11-|
---------------------------------------|
--7-7S-5-5-5-5S-4-4-4-4-4-4-4-4S--9--9-|
---------------------------------------|

   S  S S  S  E  S  E  S  E   S  E    S  
----------------------------------------|
----------------------------------------|
--11-11---11-11----11----11--11S-9S--11-|
----------------------------------------|
---9--9----9--9-----9-----9---9S-7S---9-|
----------------------------------------|

   S  S S  S  E  S  E  S  E   S  E    S     S  S S  S  E  S  E  S  E   S  E  S  
----------------------------------------|--------------------------------------|
----------------------------------------|--------------------------------------|
--11-11---11-11----11----11--11S-9S--11-|--11-11---11-11----11----11--11S-9--9-|
----------------------------------------|--------------------------------------|
---9--9----9--9-----9-----9---9S-7S---9-|---9--9----9--9-----9-----9---9S-7--7-|
----------------------------------------|--------------------------------------|

  S S  S S S S  S S S S S S S S   S  S     S  S S  S  E  S  E  S  E   E   E   
---------------------------------------|-------------------------------------|
---------------------------------------|-------------------------------------|
--9-9S-7-7-7-7S-6-6-6-6-6-6-6-6S-11-11-|--11-11---11-11----11----11--11--11--|
---------------------------------------|-------------------------------------|
--7-7S-5-5-5-5S-4-4-4-4-4-4-4-4S--9--9-|---9--9----9--9-----9-----9---9---9--|
---------------------------------------|-------------------------------------|
                                      solo

  S  E  S  E  S  E  S  E   E   E      E  H.           S S  
----------------------------------|-----------------------|
----------------------------------|--/8--7--------------7-|
----------------------------------|-------------------9---|
----11----11----11----11--11--11--|-----------------------|
----12----12----12----12--12--12--|-----------------------|
-----9-----9-----9-----9---9---9--|-----------------------|

  Q.      Q.      Q       Q.     Q.     Q          H        E   E   E  E   
-----------------------|----------------------|---------------------------|
---------10------------|----------------------|--/10--------L--10--10--7--|
--9--------------------|--9------7------------|---------------------------|
-----------------11----|----------------9S----|---------------------------|
-----------------------|----------------------|---------------------------|
-----------------------|----------------------|---------------------------|

  H.           E  S S    Q.     Q     S S S S S S    Q.      Q.      E    E   
----------------------|--------------/9---9---9---|--9------10---------------|
--8------------L--7-8-|--7------------------------|-----------------12S--10--|
----------------------|---------9-----------------|--------------------------|
----------------------|---------------------------|--------------------------|
----------------------|---------------------------|--------------------------|
----------------------|---------------------------|--------------------------|

   H.            E   E      S S  S S  S  S S  S S  S S  S  S  S  S  S  
------------------------|--17---15---14-15---14-----------------------|
--10------------14--15--|-------------------------17---14-15-14-------|
------------------------|---------------------------------------16-14-|
------------------------|---------------------------------------------|
------------------------|---------------------------------------------|
------------------------|---------------------------------------------|

   S S  S S  E   S  S S  S S  S  S  S  S  S     E.   E.   H         S  S  
--------------------------------------------|----------------------------|
------------14--15-14-----------------------|----------------------------|
--------------------------------------------|------------14--------------|
--17---16---------------17---17-16-14-------|----------------------17-16-|
--------------------------------------17-16-|--17---16-------------------|
--------------------------------------------|----------------------------|

   E.   E.   Q.      E   E      H.           E   S  S     W                  
----------------------------|--17------------L--15-14-|---------------------|
--------------------14--15--|-------------------------|--14~----------------|
----------------------------|-------------------------|---------------------|
--17---16-------------------|-------------------------|---------------------|
------------16--------------|-------------------------|---------------------|
----------------------------|-------------------------|---------------------|

  W                   Q    E  E  Q       Q    E  E  Q       Q    E  E  Q     
-------------------|------------------|------------------|------------------|
--L----------------|------------------|------------------|------------------|
-------------------|-------4-----4----|-------6-----6----|-------4-----4----|
-------------------|-------4-----4----|-------7-----7----|-------4-----4----|
-------------------|-------2-----2----|-------4-----4----|-------2-----2----|
-------------------|------------------|------------------|------------------|

  Q    E  E  Q       Q    E  E  Q       Q    E  E  Q       Q    E  E  Q     
------------------|------------------|------------------|------------------|
------------------|------------------|------------------|------------------|
-------6-----6----|-------4-----4----|-------6-----6----|-------4-----4----|
-------7-----7----|-------4-----4----|-------7-----7----|-------4-----4----|
-------4-----4----|-------2-----2----|-------4-----4----|-------2-----2----|
------------------|------------------|------------------|------------------|

  Q    E  E  Q       Q    E  E  Q       Q    E  E  Q       Q    E  E  Q     
------------------|------------------|------------------|------------------|
------------------|------------------|------------------|------------------|
-------6-----6----|-------4-----4----|-------6-----6----|-------4-----4----|
-------7-----7----|-------4-----4----|-------7-----7----|-------4-----4----|
-------4-----4----|-------2-----2----|-------4-----4----|-------2-----2----|
------------------|------------------|------------------|------------------|

  Q    E  E  Q       Q    E  E  Q       Q    E  E  Q       Q    E  E  Q     
------------------|------------------|------------------|------------------|
------------------|------------------|------------------|------------------|
-------6-----6----|-------4-----4----|-------6-----6----|-------7-----7----|
-------7-----7----|-------4-----4----|-------7-----7----|-------7-----7----|
-------4-----4----|-------2-----2----|-------4-----4----|-------5-----5----|
------------------|------------------|------------------|------------------|

  Q    E  E  Q       Q    E  E  Q       Q    E  E  Q       Q    E  E  Q     
------------------|------------------|------------------|------------------|
------------------|------------------|------------------|------------------|
-------6-----6----|-------4-----4----|-------6-----6----|-------4-----4----|
-------7-----7----|-------4-----4----|-------7-----7----|-------4-----4----|
-------4-----4----|-------2-----2----|-------4-----4----|-------2-----2----|
------------------|------------------|------------------|------------------|

  Q    E  E  Q       Q    E  E  Q       Q    E  E  Q       Q    E  E  Q     
------------------|------------------|------------------|------------------|
------------------|------------------|------------------|------------------|
-------6-----6----|-------4-----4----|-------6-----6----|-------4-----4----|
-------7-----7----|-------4-----4----|-------7-----7----|-------4-----4----|
-------4-----4----|-------2-----2----|-------4-----4----|-------2-----2----|
------------------|------------------|------------------|------------------|

  Q    E  E  Q       Q    E  E  Q       Q    E  E  Q       Q    E  E  Q     
------------------|------------------|------------------|------------------|
------------------|------------------|------------------|------------------|
-------6-----6----|-------4-----4----|-------6-----6----|-------4-----4----|
-------7-----7----|-------4-----4----|-------7-----7----|-------4-----4----|
-------4-----4----|-------2-----2----|-------4-----4----|-------2-----2----|
------------------|------------------|------------------|------------------|

  Q    E  E  Q       Q    E  E  Q       Q    E  E  Q       E  E  E  E  E  E   
------------------|------------------|------------------|--------------------|
------------------|------------------|------------------|--7-----7-----7-----|
-------6-----6----|-------4-----4----|-------6-----6----|--7-----7-----7-----|
-------7-----7----|-------4-----4----|-------7-----7----|--4-----4-----4-----|
-------4-----4----|-------2-----2----|-------4-----4----|--------------------|
------------------|------------------|------------------|--------------------|

  Q    Q     Q       H.              H.              H.            
------------------|---------------|---------------|---------------|
--7----L\---------|---------------|---------------|--3------------|
--7----L\---------|--4------------|--6------------|--4------------|
--4----L\---------|--5------------|--7------------|--4------------|
------------------|--5------------|--7------------|---------------|
------------------|---------------|---------------|---------------|

  Q.     E  E  E     H.              H.              H.            
------------------|---------------|---------------|---------------|
--L------3--3--3--|---------------|---------------|---------------|
--L------4--4--4--|--4------------|--6------------|--4------------|
--L------4--4--4--|--5------------|--7------------|--4------------|
------------------|--5------------|--7------------|--5------------|
------------------|---------------|---------------|---------------|

  Q.     E  E  E     H.              H.              H.            
------------------|---------------|---------------|---------------|
------------------|---------------|---------------|--3------------|
--L------4--4--4--|--4------------|--6------------|--4------------|
--L------4--4--4--|--5------------|--7------------|--4------------|
--L------5--5--5--|--5------------|--7------------|---------------|
------------------|---------------|---------------|---------------|

  Q.     E  E  E     E  E  E  E  E  E     E  E  E  E  E  E   
------------------|--------------------|--------------------|
--L------3--3--3--|--------------------|--------------------|
--L------4--4--4--|--4--4--4--4--4--4--|--4--4--4--4--4--4--|
--L------4--4--4--|--5--5--5--5--5--5--|--5--5--5--5--5--5--|
------------------|--5--5--5--5--5--5--|--5--5--5--5--5--5--|
------------------|--------------------|--------------------|

  E  E  E  E  E  E     E  E  E  E     W                 
--------------------|--------------|-------------------|
--------------------|--------------|-------------------|
--6--6--6--6--6--6--|--6--6--6-----|-------------------|
--7--7--7--7--7--7--|--7--7--7--4--|--L----------------|
--7--7--7--7--7--7--|--7--7--7--4--|--L----------------|
--------------------|-----------2--|--L----------------|

   S  S S  S  E  S  E  S  E   S  E    S  
----------------------------------------|
----------------------------------------|
--11-11---11-11----11----11--11S-9S--11-|
----------------------------------------|
---9--9----9--9-----9-----9---9S-7S---9-|
----------------------------------------|

   S  S S  S  E  S  E  S  E   S  E    S     S  S S  S  E  S  E  S  E   S  E  S  
----------------------------------------|--------------------------------------|
----------------------------------------|--------------------------------------|
--11-11---11-11----11----11--11S-9S--11-|--11-11---11-11----11----11--11S-9--9-|
----------------------------------------|--------------------------------------|
---9--9----9--9-----9-----9---9S-7S---9-|---9--9----9--9-----9-----9---9S-7--7-|
----------------------------------------|--------------------------------------|

  S S  S S S S  S S S S S S S S   S  S  
---------------------------------------|
---------------------------------------|
--9-9S-7-7-7-7S-6-6-6-6-6-6-6-6S-11-11-|
---------------------------------------|
--7-7S-5-5-5-5S-4-4-4-4-4-4-4-4S--9--9-|
---------------------------------------|

   S  S S  S  E  S  E  S  E   S  E    S  
----------------------------------------|
----------------------------------------|
--11-11---11-11----11----11--11S-9S--11-|
----------------------------------------|
---9--9----9--9-----9-----9---9S-7S---9-|
----------------------------------------|

   S  S S  S  E  S  E  S  E   S  E    S     S  S S  S  E  S  E  S  E   S  E  S  
----------------------------------------|--------------------------------------|
----------------------------------------|--------------------------------------|
--11-11---11-11----11----11--11S-9S--11-|--11-11---11-11----11----11--11S-9--9-|
----------------------------------------|--------------------------------------|
---9--9----9--9-----9-----9---9S-7S---9-|---9--9----9--9-----9-----9---9S-7--7-|
----------------------------------------|--------------------------------------|

  S S  S S S S  S S S S S S S S   S  S  
---------------------------------------|
---------------------------------------|
--9-9S-7-7-7-7S-6-6-6-6-6-6-6-6S-11-11-|
---------------------------------------|
--7-7S-5-5-5-5S-4-4-4-4-4-4-4-4S--9--9-|
---------------------------------------|

   S  S S  S  E  S  E  S  E   S  E    S  
----------------------------------------|
----------------------------------------|
--11-11---11-11----11----11--11S-9S--11-|
----------------------------------------|
---9--9----9--9-----9-----9---9S-7S---9-|
----------------------------------------|

   S  S S  S  E  S  E  S  E   S  E    S     S  S S  S  E  S  E  S  E   S  E  S  
----------------------------------------|--------------------------------------|
----------------------------------------|--------------------------------------|
--11-11---11-11----11----11--11S-9S--11-|--11-11---11-11----11----11--11S-9--9-|
----------------------------------------|--------------------------------------|
---9--9----9--9-----9-----9---9S-7S---9-|---9--9----9--9-----9-----9---9S-7--7-|
----------------------------------------|--------------------------------------|

  S S  S S S S  S S S S S S S S   S  S  
---------------------------------------|
---------------------------------------|
--9-9S-7-7-7-7S-6-6-6-6-6-6-6-6S-11-11-|
---------------------------------------|
--7-7S-5-5-5-5S-4-4-4-4-4-4-4-4S--9--9-|
---------------------------------------|

   S  S S  S  E  S  E  S  E   S  E    S  
----------------------------------------|
----------------------------------------|
--11-11---11-11----11----11--11S-9S--11-|
----------------------------------------|
---9--9----9--9-----9-----9---9S-7S---9-|
----------------------------------------|

   S  S S  S  E  S  E  S  E   S  E    S     S  S S  S  E  S  E  S  E   S  E  S  
----------------------------------------|--------------------------------------|
----------------------------------------|--------------------------------------|
--11-11---11-11----11----11--11S-9S--11-|--11-11---11-11----11----11--11S-9--9-|
----------------------------------------|--------------------------------------|
---9--9----9--9-----9-----9---9S-7S---9-|---9--9----9--9-----9-----9---9S-7--7-|
----------------------------------------|--------------------------------------|

  S S  S S S S  S S S S S S S S   S  S  
---------------------------------------|
---------------------------------------|
--9-9S-7-7-7-7S-6-6-6-6-6-6-6-6S-11-11-|
---------------------------------------|
--7-7S-5-5-5-5S-4-4-4-4-4-4-4-4S--9--9-|
---------------------------------------|

   S  S S  S  E  S  E  S  E   S  E    S  
----------------------------------------|
----------------------------------------|
--11-11---11-11----11----11--11S-9S--11-|
----------------------------------------|
---9--9----9--9-----9-----9---9S-7S---9-|
----------------------------------------|

   S  S S  S  E  S  E  S  E   S  E    S     S  S S  S  E  S  E  S  E   S  E  S  
----------------------------------------|--------------------------------------|
----------------------------------------|--------------------------------------|
--11-11---11-11----11----11--11S-9S--11-|--11-11---11-11----11----11--11S-9--9-|
----------------------------------------|--------------------------------------|
---9--9----9--9-----9-----9---9S-7S---9-|---9--9----9--9-----9-----9---9S-7--7-|
----------------------------------------|--------------------------------------|

  S S  S S S S  S S S S S S S S   S  S  
---------------------------------------|
---------------------------------------|
--9-9S-7-7-7-7S-6-6-6-6-6-6-6-6S-11-11-|
---------------------------------------|
--7-7S-5-5-5-5S-4-4-4-4-4-4-4-4S--9--9-|
---------------------------------------|

   S  S S  S  E  S  E  S  E   S  E    S  
----------------------------------------|
----------------------------------------|
--11-11---11-11----11----11--11S-9S--11-|
----------------------------------------|
---9--9----9--9-----9-----9---9S-7S---9-|
----------------------------------------|

   S  S S  S  E  S  E  S  E   S  E    S     S  S S  S  E  S  E  S  E   S  E  S  
----------------------------------------|--------------------------------------|
----------------------------------------|--------------------------------------|
--11-11---11-11----11----11--11S-9S--11-|--11-11---11-11----11----11--11S-9--9-|
----------------------------------------|--------------------------------------|
---9--9----9--9-----9-----9---9S-7S---9-|---9--9----9--9-----9-----9---9S-7--7-|
----------------------------------------|--------------------------------------|

  S S  S S S S  S S S S S S S S   S  S  
---------------------------------------|
---------------------------------------|
--9-9S-7-7-7-7S-6-6-6-6-6-6-6-6S-11-11-|
---------------------------------------|
--7-7S-5-5-5-5S-4-4-4-4-4-4-4-4S--9--9-|
---------------------------------------|

   S  S S  S  E  S  E  S  E   S  E    S  
----------------------------------------|
----------------------------------------|
--11-11---11-11----11----11--11S-9S--11-|
----------------------------------------|
---9--9----9--9-----9-----9---9S-7S---9-|
----------------------------------------|

   S  S S  S  E  S  E  S  E   S  E    S     S  S S  S  E  S  E  S  E   S  E  S  
----------------------------------------|--------------------------------------|
----------------------------------------|--------------------------------------|
--11-11---11-11----11----11--11S-9S--11-|--11-11---11-11----11----11--11S-9--9-|
----------------------------------------|--------------------------------------|
---9--9----9--9-----9-----9---9S-7S---9-|---9--9----9--9-----9-----9---9S-7--7-|
----------------------------------------|--------------------------------------|

  S S  S S S S  S S S S S S S S   S  S  
---------------------------------------|
---------------------------------------|
--9-9S-7-7-7-7S-6-6-6-6-6-6-6-6S-11-11-|
---------------------------------------|
--7-7S-5-5-5-5S-4-4-4-4-4-4-4-4S--9--9-|
---------------------------------------|

   S  S S  S  E  S  E  S  E   S  E    S  
----------------------------------------|
----------------------------------------|
--11-11---11-11----11----11--11S-9S--11-|
----------------------------------------|
---9--9----9--9-----9-----9---9S-7S---9-|
----------------------------------------|

   S  S S  S  E  S  E  S  E   S  E    S     S  S S  S  E  S  E  S  E   S  E  S  
----------------------------------------|--------------------------------------|
----------------------------------------|--------------------------------------|
--11-11---11-11----11----11--11S-9S--11-|--11-11---11-11----11----11--11S-9--9-|
----------------------------------------|--------------------------------------|
---9--9----9--9-----9-----9---9S-7S---9-|---9--9----9--9-----9-----9---9S-7--7-|
----------------------------------------|--------------------------------------|

  S S  S S S S  S S S S S S S S   S  S  
---------------------------------------|
---------------------------------------|
--9-9S-7-7-7-7S-6-6-6-6-6-6-6-6S-11-11-|
---------------------------------------|
--7-7S-5-5-5-5S-4-4-4-4-4-4-4-4S--9--9-|
---------------------------------------|

   S  S S  S  E  S  E  S  E   S  E    S  
----------------------------------------|
----------------------------------------|
--11-11---11-11----11----11--11S-9S--11-|
----------------------------------------|
---9--9----9--9-----9-----9---9S-7S---9-|
----------------------------------------|

   S  S S  S  E  S  E  S  E   S  E    S     S  S S  S  E  S  E  S  E   S  E  S  
----------------------------------------|--------------------------------------|
----------------------------------------|--------------------------------------|
--11-11---11-11----11----11--11S-9S--11-|--11-11---11-11----11----11--11S-9--9-|
----------------------------------------|--------------------------------------|
---9--9----9--9-----9-----9---9S-7S---9-|---9--9----9--9-----9-----9---9S-7--7-|
----------------------------------------|--------------------------------------|

  S S  S S S S  S S S S S S S S   S  S  
---------------------------------------|
---------------------------------------|
--9-9S-7-7-7-7S-6-6-6-6-6-6-6-6S-11-11-|
---------------------------------------|
--7-7S-5-5-5-5S-4-4-4-4-4-4-4-4S--9--9-|
---------------------------------------|

   S  S S  S  E  S  E  S  E   S  E    S  
----------------------------------------|
----------------------------------------|
--11-11---11-11----11----11--11S-9S--11-|
----------------------------------------|
---9--9----9--9-----9-----9---9S-7S---9-|
----------------------------------------|

   S  S S  S  E  S  E  S  E   S  E    S     S  S S  S  E  S  E  S  E   S  E  S  
----------------------------------------|--------------------------------------|
----------------------------------------|--------------------------------------|
--11-11---11-11----11----11--11S-9S--11-|--11-11---11-11----11----11--11S-9--9-|
----------------------------------------|--------------------------------------|
---9--9----9--9-----9-----9---9S-7S---9-|---9--9----9--9-----9-----9---9S-7--7-|
----------------------------------------|--------------------------------------|


  S S  S S S S  S S S S S S S S   S  S  
[
Colaboración y revision:
  • Ana Duarte
196 reproducciones
    • ½ Tono
    • A
    • Bb
    • B
    • C
    • Db
    • D
    • Eb
    • E
    • F
    • F#
    • G
    • Ab
  • Adicionar à lista

    0 comentarios

    Ver todos os comentários

    ¿Conseguiste tocar?

    0 Tocaram 0 Ainda não

    Grave um vídeo tocando Kare Uta e nos envie!

    00:00 / 00:00
    outros vídeos desta música
    repetir qualidade Automático
    Outros vídeos desta música
    00:00 / 00:00
    Automático
    OK