Cifra Club

Last Heaven

the GazettE

Tablatura: Principal (guitarra)
tono: F# (con acordes en la forma de Ab) Afinación: D G C F A D
Não está completamente Idêntica a da Música,mas eu fiz o meu melhor.
Essa é a parte do Aoi.


|----------------------------------------------------------------------|
|---------3-----------------6------------8------------6----------------|
|----------------------------------------------------------------------|
|------4-----4---------7-------7------7-----7------7------7------------|
|---3--------------5---------------5------------5----------------------|
|----------------------------------------------------------------------|

(Nos versos,o dedilhado é o mesmo,no refrão,são adicionados acordes)
Always stay this way
Koko ni iru yo
Kotoba yori mo fukaku
Last heaven

Tooki sora mugen no toki koboreru hoshi ni ima negai o
Kagirinaku mawari tsuzukeru aoi merry-go-round
Kimi no you ni "eien" de aritai

Am5+
Love without shape changing day by day
Toki o kasaneru
G#4
Todokanai yume o mite iyou
Long road which leads to the calm hill
 Fm              G#4
Kanashimi oite iku yo
Am5+
Good night…My beloved
Last heaven of mine

Fukyou no ki namiutsu umi koboreru hoshi ni ima negai o
Kagirinaku mawari tsuzukeru aoi merry-go-round
Kimi ni nareba "eien" to oshiete kure

Am5+
Love without shape changing day by day
Toki o kasaneru
G#4
Todokanai yume o mite iyou
Long road which leads to the calm hill
 Fm              G#4
Kanashimi oite iku yo
Am5+
Good night…My beloved
Last heaven of mine

Memento mori
All things must have an end
But you don't need to grieve
Mata meguri aeru yo
Am5+
Love without shape changing day by day
Fukaku kasaneru
G#4
Futari wa hitotsu
Nagareboshi ni natte
Long road which leads to the calm hill
Am5+
Hikari o tomosu you ni
Asu o terasu
Am5+
Love without shape changing day by day
Toki o kasaneru
G#4
Todokanai yume o mite iyou
Long road which leads to the calm hill
Fm                G#4
Kanashimi oite iku yo
Good night…My beloved
Last heaven of mine

Always stay this way
Koko ni iru yo
Kotoba yori mo fukaku

Esse final é o mesmo esquema do começo,mas quando o ultimo verso é cantado fica assim:

|-----------------------------------------------------------------------|
|------------6--------8---------6-----------8---------------------------|
|-----------------------------------------------------------------------|
|-------7----------------------------7----------------------------------|
|---5-------------5--------5--------------------------------------------|
|-----------------------------------------------------------------------|
Composição de Ruki
Colaboración y revision:
  • Yori Hikushi
389 reproducciones
    • ½ Tono
    • A
    • Bb
    • B
    • C
    • Db
    • D
    • Eb
    • E
    • F
    • F#
    • G
    • Ab
  • Adicionar à lista

    0 comentarios

    Ver todos os comentários

    ¿Conseguiste tocar?

    0 Tocaram 0 Ainda não

    Grave um vídeo tocando Last Heaven e nos envie!

    00:00 / 00:00
    outros vídeos desta música
    repetir qualidade Automático
    Outros vídeos desta música
    00:00 / 00:00
    Automático
    OK