Cifra Club

Aprenda

Reila

the GazettE

Tablatura: Principal (guitarra)
tono: C
Reila solo 1

---------------------|-----------------------|--------------14------| 
-----------5------5--|-------12--------------|------------------12--| 
---------------4-----|-----------------------|----------------------| 
---------------------|-----------------------|----------------------| 
---------------------|-----------------------|----------------------| 
---------------------|-----------------------|----------------------| 
                                                                             
----------------------------------|------------------------       |------------------------| 
----10--10--8--8/-7--7--7---------|----8-------5------5----       |-------12---------10h12h| 
----------------------------------|----------------4-------       |------------------------| 
----------------------------------|------------------------       |------------------------| 
----------------------------------|------------------------       |------------------------| 
----------------------------------|------------------------       |------------------------| 
                                                                               
----------------------------|--------------------14--------|-----------15---------------| 
--10----8--7---------7------|----8--7----------------------|----12----------13--12--15--| 
----------------------------|----------9-------------------|----------------------------| 
----------------9-----------|------------------------------|----------------------------| 
----------------------------|------------------------------|----------------------------| 
----------------------------|------------------------------|----------------------------| 
                                                         
---------------------------           |---------------------------| 
--15----15b-------15h13h12-           |-------12------------------| 
---------------------------           |--14--------------11-12-14-| 
---------------------------           |---------------------------| 
---------------------------           |---------------------------| 
---------------------------           |---------------------------| 
                                                                             
------------------------------------|-------------------------------------|------------------14--| 
------------------------------------|-------------------------------------|----------------------| 
--14---14b--------14-12-11----------|-------11---------12-----------------|--11------------------| 
------------------------------------|--14---------------------------------|----------------------| 
------------------------------------|-------------------------------------|----------------------| 
------------------------------------|-------------------------------------|----------------------| 
                                                                               
----------15----------17--|----15--14--12----14--15--19r-|------------------| 
----12----------12--------|------------------------------|------------------| 
--------------------------|------------------------------|------------------| 
--------------------------|------------------------------|------------------| 
--------------------------|------------------------------|------------------| 
--------------------------|------------------------------|------------------|
Composição de Ruki
Colaboración y revision:
  • Giuliana Fantauzzi
937 reproducciones
    • ½ Tono
    • A
    • Bb
    • B
    • C
    • Db
    • D
    • Eb
    • E
    • F
    • F#
    • G
    • Ab
  • Adicionar à lista

    0 comentarios

    Ver todos os comentários

    ¿Conseguiste tocar?

    1 Tocaram 0 Ainda não

    Grave um vídeo tocando Reila e nos envie!

    00:00 / 00:00
    outros vídeos desta música
    repetir qualidade Automático
    Outros vídeos desta música
    00:00 / 00:00
    Automático
    OK