Cifra Club

Giant

Gentle Giant

Cifrado: Principal (guitarra y guitarra eléctrica)
Selo Cifra Club: esta cifra foi revisada para atender aos critérios oficiais da nossa Equipe de Qualidade.
tono: D
Album: Gentle Giant


Here are the Chords (basic)

  C  B  D  A
--3--2--5------|
--5--4--7--3---|
--5--4--7--3---|
--5--4--7--3---|
--3--2--5------|
---------------|

00:38

C  B  D
----------------------------------------12-10-------10-12-13-14-----|
---12------12---------12-10-------12----------12-13-----------------|
-9----9-12----11-12---------11-12----10-----------------------------|
--------------------------------------------------------------------|
--------------------------------------------------------------------|
--------------------------------------------------------------------|

00:52

C  B  D
----------------------------------------12-10-------10-12-13-14-----|
---12------12---------12-10-------12----------12-13-----------------|
-9----9-12----11-12---------11-12----10-----------------------------|
--------------------------------------------------------------------|
--------------------------------------------------------------------|
--------------------------------------------------------------------|

---------------------------------12-10--------10-12-13-14-----------|
-13-12--15-14-----------14-13----------12-13--------------14-13-----|
--------------14-12-13--------10---------------------------------10-|
--------------------------------------------------------------------|
--------------------------------------------------------------------|
--------------------------------------------------------------------|

01:18

C B D
----------------------------------------12-10-------10-12-13-14-----|
---12------12---------12-10-------12----------12-13-----------------|
-9----9-12----11-12---------11-12----10-----------------------------|
--------------------------------------------------------------------|
--------------------------------------------------------------------|
--------------------------------------------------------------------|

C B D
----------------------------------------12-10-------10-12-13-14-----|
---12------12---------12-10-------12----------12-13-----------------|
-9----9-12----11-12---------11-12----10-----------------------------|
--------------------------------------------------------------------|
--------------------------------------------------------------------|
--------------------------------------------------------------------|

---------------------------------12-10--------10-12-13-14-----------|
-13-12--15-14-----------14-13----------12-13--------------14-13-----|
--------------14-12-13--------10------------------------------------|
--------------------------------------------------------------------|
--------------------------------------------------------------------|
--------------------------------------------------------------------|


02:01

D C B A

D C B A


02:39

C B D
----------------------------------------12-10-------10-12-13-14-----|
---12------12---------12-10-------12----------12-13-----------------|
-9----9-12----11-12---------11-12----10-----------------------------|
--------------------------------------------------------------------|
--------------------------------------------------------------------|
--------------------------------------------------------------------|

C B D
----------------------------------------12-10-------10-12-13-14-----|
---12------12---------12-10-------12----------12-13-----------------|
-9----9-12----11-12---------11-12----10-----------------------------|
--------------------------------------------------------------------|
--------------------------------------------------------------------|
--------------------------------------------------------------------|

---------------------------------12-10--------10-12-13-14-----------|
-13-12--15-14-----------14-13----------12-13--------------14-13-----|
--------------14-12-13--------10------------------------------------|
--------------------------------------------------------------------|
--------------------------------------------------------------------|
--------------------------------------------------------------------|

05:43

C B D
----------------------------------------12-10-------10-12-13-14-----|
---12------12---------12-10-------12----------12-13-----------------|
-9----9-12----11-12---------11-12----10-----------------------------|
--------------------------------------------------------------------|
--------------------------------------------------------------------|
--------------------------------------------------------------------|

----------------------------------------12-10-------10-12-13-14-----|
---12------12---------12-10-------12----------12-13-----------------|
-9----9-12----11-12---------11-12----10-----------------------------|
--------------------------------------------------------------------|
--------------------------------------------------------------------|
--------------------------------------------------------------------|

---------------------------------12-10--------10-12-13-14-----------|
-13-12--15-14-----------14-13----------12-13--------------14-13-----|
--------------14-12-13--------10------------------------------------|
--------------------------------------------------------------------|
--------------------------------------------------------------------|
--------------------------------------------------------------------|

Criada por: sumay@netvision.net.il
Enviada por: Diego Falabella (youngmaster@gmail.com)
Otros videos de esta canción
    1.588 exhibiciones
      • ½ Tono
      • A
      • Bb
      • B
      • C
      • Db
      • D
      • Eb
      • E
      • F
      • F#
      • G
      • Ab
    • Agregar a la lista

    Afinación de cifrado

    Afinador online

      OK