Cifra Club

Aprenda

Pantagruel's Nativity

Gentle Giant

Tablatura: Principal (guitarra)
Tom: B
   F      D      B
e|-7------5------2-|
B|-9------7------4-|
G|-9------7------4-|
D|-9------7------4-|
A|-7------5------2-|
E|-----------------|

 F
How can I laugh or cry
When my mind is sorely torn?
 D
Badabec had to die
Fair Pantagruel is born
 B
Shall I weep, yes, for why?
Then laugh and show my scorn

e|--7-10--------7---10-------7-10--------7---10-----|
B|-------7-------------7----------7-------------7---|
G|----------9------------9-----------9------------9-|
D|--------------------------------------------------|
A|--------------------------------------------------|
E|--------------------------------------------------|
 F
Born with a strength untold
Foreseen to have great age
 D
Set in Gargantuan mould,
Joyful laugh, yet quick to rage
 B
Princely wisdom, habits bold;
Power, glory, lauded sage

e|--7-10--------7---10-------7-10--------7---10-----|
B|-------7-------------7----------7-------------7---|
G|----------9------------9-----------9--------------|
D|--------------------------------------------------|
A|--------------------------------------------------|
E|--------------------------------------------------|

e|-0---0--0--0--0--0---|
B|-4---4--2--4--2--5---|
G|-4---4--2--4--2--5---|
D|---------------------|
A|---------------------|
E|---------------------|

e|-------------------------------------|
B|-------------------------------------|
G|-------------------------------------|
D|---9-----8-----------10-----9-8-7----|
A|-----------8-------------9-----------|
E|-7---7-------6---7----------------10-|

Pantagruel born -- the earth was dry and burning
In Paradise dear Badabec prays for him
Pantagruel born -- the earth was dry and burning
In Paradise dear Badabec prays for him.

A guitarra pára durante o solo de xilofone. Os saxofones tocam esta harmonia:

e|----------------|
B|----------------|
G|----------------|
D|----------------|
A|-7---7-5-7-5-8--|
E|-7---7-5-7-5-8--|

Solo:
e|10---8--------------------------------------------8--10---13---17-
B|----------------8--------------8-8b10-10p8p6-8/10-----------------
G|-------10--9-10---9h10-7--9h10------------------------------------
D|------------------------------------------------------------------
A|------------------------------------------------------------------
E|------------------------------------------------------------------

e-15--13--15--17\15--10--13-15-13-15-13-15\13--10---9---8-9p8-------
B|-------------------------------------------------------------10----
G|-------------------------------------------------------------------
D|-------------------------------------------------------------------
A|-------------------------------------------------------------------
E|-------------------------------------------------------------------

e|------7h8-10--8p7----10-7---8p7----8----8--------------------------
B|-8h10-------------10------------8------------------------8b10------
G|-------------------------------------10---9---10p9-7--10-------10--
D|-------------------------------------------------------------------
A|-------------------------------------------------------------------
E|-------------------------------------------------------------------

e|----------10-8/10--8-----------------------------------------------
B|-8---8/10------------10-8/10--10p8----8----------------------------
G|---7-------------------------------10---10-7-10-7------------------
D|--------------------------------------------------7----------------
A|----------------------------------------------------10-8-7---7-8---
E|-------------------------------------------------------------------

e|-------------------------------------------------------|
B|------------------------------------8-10p8----8--------|
G|----------------7-7---7\2------7-10--------10---10-----|
D|-7---7-10--7-10-----------7/10-------------------------|
A|-------------------------------------------------------|
E|-------------------------------------------------------|

e|-------------------------------------|
B|-------------------------------------|
G|-------------------------------------|
D|---9-----8-----------10-----9-8-7----|
A|-----------8-------------9-----------|
E|-7---7-------6---7----------------10-|


Pantagruel born -- the earth was dry and burning
In Paradise dear Badabec prays for him

e||-------------------------------------------------------------
B||-------------------------------------------------------------
G||*---------------------------------------4-3-2-1---0----------
D||*-------------5-4-3-2---1-0-------------------------4-3--3-1-
A||--2---2-0-2-0---------------4---4-2-4-2----------------------
E||-------------------------------------------------------------

e|--------------------||---------------|
B|--------------------||---------------|
G|-3-2---------------*||---------------|
D|-----3-0-----5-4-0-*||---------------|
A|-----------3--------||---------------|
E|--------------------||--4------3-2-1-|

 F
How can I laugh or cry
When my mind is sorely torn?
 D
Badabec had to die;
Fair Pantagruel is born
 B
Shall I weep, yes, for why?
Then laugh and show my scorn.

e|--7-10--------7---10-------7-10--------7---10-----|
B|-------7-------------7----------7-------------7---|
G|----------9------------9-----------9--------------|
D|--------------------------------------------------|
A|--------------------------------------------------|
E|--------------------------------------------------|
Compositor Kerry Minnear / Phil Shulman
Colaboración y revision:
  • Conrado Lima
30 reproducciones
    • ½ Tom
    • A
    • Bb
    • B
    • C
    • Db
    • D
    • Eb
    • E
    • F
    • F#
    • G
    • Ab
  • Adicionar à lista

    0 comentarios

    Mostrar mais comentários

    ¿Conseguiste tocar?

    0 Tocaron 0 Ainda não

    Grave um vídeo tocando Pantagruel's Nativity e mande pra gente!

    00:00 / 00:00
    outros vídeos desta música
    repetir qualidade Automático
    Outros vídeos desta música
    00:00 / 00:00
    Automático
    OK