Cifra Club

Aprenda

Why Not?

Gentle Giant

Tablatura: Principal (guitarra)
Tom: C
  1º verso inicial   2º verso inicial
e |--------------|   |----------|
B |--------------|   |----------|
G |-----------3--|   |----------|
D |--------------|   |-------3--|
A |-------3-5----|   |---3-5----|
E |---3-6--------|   |----------|

                riff principal
e |----------------------------------------------|
B |----------------------------------------------|
G |-------------------------------------------3--|
D |-5--3-5--3-5-3-5-5-3--------3-5--3-5--3-5-----|
A |---------------------3b-----------------------|
E |------------------------6---------------------|

   CHORUS            ...Dead before playing
                         A# A#          F F
e |--------------------|-6-6----------1-1--|
B |--------------------|-6-6----------1-1--|
G |-5--3-5--3-5-3------|-7-7----------2-2--|
D |---------------5-3--|-8-8----------3-3--|
A |--------------------|-8-6----------3-3--|
E |--------------------|-6-6----------1-1--|

   on the last chorus, after this part just play:
   "...Dead before playing"
       A# A#          D D

   PRe|-SOLO 1

e |------------4-4--|--------------12-12--|-13-13--12-10--------|
B |------6-5-3------|------11-10-8--------|--------------10-10--|
G |-4-4-------------|-9-9-----------------|---------------------|
D |-----------------|---------------------|---------------------|
A |-----------------|---------------------|---------------------|
E |-----------------|---------------------|---------------------|

  |------------------------|------------------------------------------|
  |-10-13-11-11--14-14-15--|-13-15--13-15-13-15--13-15--13-15--13-15--|
  |------------------------|------------------------------------------|
  |------------------------|------------------------------------------|
  |------------------------|------------------------------------------|
  |------------------------|------------------------------------------|

   PRe|-SOLO 2

e |------------------------|
B |------------------------|
G |----------------17b-15--|
D |-15-17-15-17-15---------|
A |------------------------|
E |------------------------|
Compositor Derek Shulman / Kerry Minnear / Phil Shulman / Ray Shulman
Colaboración y revision:
  • Diego Falabella
27 reproducciones
    • ½ Tom
    • A
    • Bb
    • B
    • C
    • Db
    • D
    • Eb
    • E
    • F
    • F#
    • G
    • Ab
  • Adicionar à lista

    0 comentarios

    Mostrar mais comentários

    ¿Conseguiste tocar?

    0 Tocaron 0 Ainda não

    Grave um vídeo tocando Why Not? e mande pra gente!

    00:00 / 00:00
    outros vídeos desta música
    repetir qualidade Automático
    Outros vídeos desta música
    00:00 / 00:00
    Automático
    OK