Cifra Club

Aprenda

Budapest

George Ezra

Tablatura: Principal (guitarra)
tono: F (con acordes en la forma de G) Afinação: D G C F A D
Intro: G

Primeira Parte:

My house in Budapest

My, my hidden treasure chest

Golden grand piano

My beautiful castillo
 C
You, ooh
                      G
You, ooh I’d leave it all


My acres of a land

I have achieved

It may be hard for you to

Stop and believe
         C
But for you, ooh
                      G
You, ooh I’d leave it all
         C
Oh, for you, ooh
                      G
You, ooh I’d leave it all

Refrão:

 D
Give me one good reason
    C                       G
Why I should never make a change
     D
And baby if you hold me
     C                     G
Then all of this will go away

Segunda Parte:


My many artifacts

The list goes on

If you just say the words

I’ll up and run
       C
Oh to you, ooh
                      G
You, ooh I’d leave it all
         C
Oh, for you, ooh
                      G
You, ooh I’d leave it all

Refrão:

 D
Give me one good reason
    C                       G
Why I should never make a change
     D
And baby if you hold me
     C                     G
Then all of this will go away

 D
Give me one good reason
    C                       G
Why I should never make a change
     D
And baby if you hold me
     C                     G
Then all of this will go away

Base Solo: G  C  G

Solo:

E|----------------------------------------------------|
B|-8-10-8---8---8-10-8---8---8-10-8-5-8---8-10-8---8--|
G|--------7------------7-------------------------7----|
D|-5--7-5---5---5--7-5---5---5--7-5-2-5---5--7-5---5--|
A|--------5------------5-------------------------5----|
E|----------------------------------------------------|

Terceira Parte:

G
  My friends and family

They don’t understand

They fear they’d lose so much

If you take my hand

         C
But for you, ooh
                      G
You, ooh I’d lose it all
         C
Oh, for you, ooh
                      G
You, ooh I’d lose it all

Refrão:

 D
Give me one good reason
    C                       G
Why I should never make a change
     D
And baby if you hold me
     C                     G
Then all of this will go away

 D
Give me one good reason
    C                       G
Why I should never make a change
     D
And baby if you hold me
     C                     G
Then all of this will go away

Final:

My house in Budapest

My, my hidden treasure chest

Golden grand piano

My beautiful castillo
 C
You, ooh
                      G
You, ooh I’d leave it all
         C
Oh, for you, ooh
                      G
You, ooh I’d live it all

Dedilhado Principal:

Parte 1

  G
E|------------------------------------------|
B|---0-----0---0-----0----0-----0---0-----0-|
G|---0-----0---0-----0----0-----0---0-----0-|
D|---0-----0---0-----0----0-----0---0-----0-|
A|-----0h2-------0h2--------0h2-------0h2---|
E|-3-------3-3----------3-------3-3---------|

Parte 2

   C
E|---0---0---0---0-----0---0---0---0--------|
B|---1---1---1---1-----1---1---1---1--------|
G|---0---0---0---0-----0---0---0---0--------|
D|------------------------------------------|
A|-3---3-3-3---3-----3---3-3-3---3----------|
E|------------------------------------------|

Parte 3

   D
E|---2---2---2---2-----2---2---2---2--------|
B|---3---3---3---3-----3---3---3---3--------|
G|---2---2---2---2-----2---2---2---2--------|
D|-0---0-0-0---0-----0---0-0-0---0----------|
A|------------------------------------------|
E|------------------------------------------|

Dedilhado Variação:

Parte 1

E|------------------------------------------|
B|------------------------------------------|
G|------------------------------------------|
D|------------------------------------------|
A|-----------------------------------2------|
E|-3--3-3--3--3-3--3--3-3--3--3-3--3--------|

Parte 2

E|------------------------------------------|
B|------------------------------------------|
G|------------------------------------------|
D|------------------------------------------|
A|-3--3-3--3--3-3--3-2--------------------2-|
E|----------------------3--3-3--3--3-3--3---|

Parte 3

E|------------------------------------------|
B|------------------------------------------|
G|------------------------------------------|
D|------------------------------------------|
A|-3--3-3--3--3-3--3-2----------------------|
E|------------------------------------------|

Parte 4

  G
E|------------------------------------------|
B|---0-----0---0-----0----0-----0---0-----0-|
G|---0-----0---0-----0----0-----0---0-----0-|
D|---0-----0---0-----0----0-----0---0-----0-|
A|-----0h2-------0h2--------0h2-------0h2---|
E|-3-------3-3----------3-------3-3---------|
Composição de George Ezra
2.833 reproducciones
  • Simplificar cifra
    • ½ Tono
    • A
    • Bb
    • B
    • C
    • Db
    • D
    • Eb
    • E
    • F
    • F#
    • G
    • Ab
  • Adicionar à lista

    0 comentarios

    Ver todos os comentários

    ¿Conseguiste tocar?

    32 Tocaram 6 Ainda não

    Grave um vídeo tocando Budapest e nos envie!

    00:00 / 00:00
    outros vídeos desta música
    repetir qualidade Automático
    Outros vídeos desta música
    00:00 / 00:00
    Automático
    Capítulos
    • Tocando música
    • Dicas Iniciais
    • Afinação
    • Acordes da música
    • Tocando trecho inicial
    • Dedilhado - Parte 1 de 3
    • Dedilhado - Parte 2 de 3
    • Dedilhado - Parte 3 de 3
    • Dicas Segunda Parte - Solo
    • Tocando Segunda Parte - Solo
    • Ensinando Solo
    • Dicas Terceira Parte
    • Tocando Terceira Parte
    • Ensinando Terceira Parte
    • Terceira Parte - Parte 1 de 4
    • Terceira Parte - Parte 2 de 4
    • Terceira Parte - Parte 3 de 4
    • Terceira Parte - Parte 4 de 4
    • Dicas Finais e Encerramento
    • Ficha técnica / Erros de Gravação
    OK