Cifra Club

Careless Whisper

George Michael

Chords: Principal (acoustic and electric guitars)
tone: Dm
[Intro] Dm9  Gm7(11)  Bb7M  Am7
        Dm9  Gm7(11)  Bb7M  Am7

[Parte 1 De 3] 

              Dm
E|-x-x-x-x----12p10----x-----12-10----x-----|
B|-x-x-x-x----10----10-x-----10----10-x-----|
G|-x-x-x-x----10-------x-10-----------x-10--|
D|-x-x-x-x----0--------x-----0--------x----0|
A|-x-x-x-x-------------x--------------x-----|
E|-x-x-x-x-10\---------x--------------x-----|

[Parte 2 De 3] 

   Gm7                Bb7M
E|-8-6---x----8-6---x----6-5---------x------|
B|-6---6-x----6---6-x----6---6-------x------|
G|-7-----x-7--------x-6----------7-3-x-3----|
D|-5-----x----5-----x----------------x------|
A|-------x----------x-0--------x---1-x---1--|
E|-------x----------x----6-----------x------|

[Parte 3 De 3] 
               
E|------------------------------------------|
B|------------5-6/8---10--------------------|
G|-2-3/5---7--6-----------------------------|
D|------------------------------------------|
A|-0----------0-----------------------------|
E|-----x----------x-------------------------|

[Parte 1 De 3]Variação

   Dm
E|-12p10----x-----12-10----x----------------|
B|-10----10-x-----10----10-x----------------|
G|-10-------x-10-----------x-10-------------|
D|-0--------x-----0--------x----0-----------|
A|----------x--------------x----------------|
E|----------x--------------x----------------|

[Primeira Parte] 

Dm7          Gm7  Am7
I feel so unsure
      Bb7M                
As I take your hand and lead 
     Am7
You to the dance floor
Dm7                
    As the music dies
 Gm7              Am7  
Something in your eyes
 Bb7M
Calls to mind a silver screen
    Am7
And all it's sad goodbyes

[Refrão] 

Dm7                             
    I'm never gonna dance again
  Gm7                    Am7
Guilty feet have got no rythm
 Bb7M                         
      Though it's easy to pretend
    Am7
I know you're not a fool
  Dm7
Should have known better

Than to cheat a friend
     Gm7               
And waste the chance that
           Am7
I've been given
 Bb7M                            
So I'm never gonna dance again
     Am7               Dm7
The way I danced with you

[Solo] Dm7  Gm7  Bb7M  Am7

E|--------------------------10-12-13-10----------------|
B|-----------------------10----------------------------|
G|-10-9-10----10-9-10-12-----------------7-5-7---------|
D|---------8-------------------------------------------|
A|-----------------------------------------------------|
E|-----------------------------------------------------|

[Segunda Parte] 

Riff 1
E|-----------------------------------------------------|
B|--------8-8/10---------------10-11-10-11-10----------|
G|-7-9-10---------12p10--------10-10-10-10-10----------|
D|----------------------12-----------------------------|
A|-----------------------------------------------------|
E|-----------------------------------------------------|

Riff 2
E|------------------10---------------------------------|
B|------------------10---------------------------------|
G|-----------5-7----10---------------------------------|
D|-----5-7-8-------------------------------------------|
A|-7-8-------------------------------------------------|
E|-----------------------------------------------------|

 Dm7            Gm7  Am7
Time can never mend
       Bb7M           Am7
The careless whispers of a good friend
 Dm7 (Riff 1)
To the heart and mind
Gm7                
Ignorance is kind
Bb7M                         
     There's no comfort 

In the truth
 Am7 (Riff 2)
Pain is all you'll find

[Refrão] 

Riff 3
E|-----------------------------------------------------|
B|-----------------------------------------------------|
G|-----------5-7---------------------------------------|
D|-----5-7-8-------------------------------------------|
A|-7-8-------------------------------------------------|
E|-----------------------------------------------------|

Dm7                             
I'm never gonna dance again
 Gm7                     Am7        
Guilty feet have got no rythm
  Bb7M                         
Though it's easy to pretend
    Am7 (Riff 3)
I know you're not a fool
  Dm7
Should have known better

Than to cheat a friend
     Gm7               
And waste the chance that

I've been given
 Bb7M                            
So I'm never gonna dance again
     Am7               Dm7
The way I danced with you

[Intro] Dm9  Gm7(11)  Bb7M  Am7
        Dm9  Gm7(11)  Bb7M  Am7

[Ponte] 

   Dm7
Tonight the music seems so loud
   Gm7                           Am7
I wish that we could lose this crowd
 Bb7M
Maybe it's better this way
      Am7
We'd hurt each other with the things
 
We want to say
    Dm7
We could have been so good together
    Gm7                           Am7
We could have lived this dance forever
     Bb7M                        Am7
But now, who's gonna dance with me?

Please stay

[Refrão] 

Dm7                             
    I'm never gonna dance again
  Gm7                    Am7
Guilty feet have got no rythm

Bb7M                         
     Though it's easy to pretend
    Am7
I know you're not a fool
  Dm7
Should have known better

Than to cheat a friend
     Gm7               
And waste the chance that
           Am7
I've been given
 Bb7M                            
So I'm never gonna dance again
  Am7                  Dm7
The way I danced with you

( Dm9  Gm7(11)  Bb7M  Am7 )

Dm7                  Gm7
    Now that you're gone
                 Am7  Bb7M  Am7
Now that you're gone

Dm7                 Gm7
   Now that you're gone
                       Am7     Bb7M
As what I did so wrong,   so wrong
                  Am7
That you had to leave me alone?

[Final] Dm7  Gm7  Bb7M  Am7
        Dm7  Gm7  Bb7M  Am7
        Dm7  Gm7  Am7  Bb7M  Am7
        Dm7  Gm7  Am7  Bb7M  Am7  Dm7
00:00 / 00:00
Other videos of this song
Repeat
Other videos of this song
Composed by Andrew Ridgeley / George Michael
Collaboration and Review:
75.128 views
  • Simplify chords
    • ½ Tone
    • Am
    • Bbm
    • Bm
    • Cm
    • C#m
    • Dm
    • Ebm
    • Em
    • Fm
    • F#m
    • Gm
    • G#m
  • Add to list
    00:00 / 00:00
    Chapters
    • Tocando a Música
    • Apresentação
    • Acordes da Música
    • Ensinando Ritmo Padrão da Música
    • Tocando Final
    • Ensinando Ritmo Final
    • Acordes do Introdução
    • Tocando Introdução
    • Ensinando Introdução
    • Tocando Solo
    • Ensinando Solo
    • Tocando Segunda Parte e Refrão
    • Ensinando Riff 1
    • Ensinando Riff 2
    • Ensinando Riff 3
    • Encerramento
    OK