Cifra Club

Careless Whisper

George Michael

Cifrado: Principal (guitarra y guitarra eléctrica)
tono: F
[Intro]

     Dm                     Gm7                Gm7/A Bb7M
E|---0-----------0--------------------------------------------------|
B|------3-----------3--------1-----------1--------------------------|
G|---------2-----------2--------3-----------3--------3--2-----------|
D|------------3-----------3--------3-(0)-------3-----------3--0-----|
A|------------------------------------4--------------------------1--|
E|------------------------------------------------------------------|

   Am7
E|------------------------------------------------------------------|
B|------------------------------------------------------------------|
G|-------------------0--2-------------------------------------------|
D|----------0--2--3-------------------------------------------------|
A|-0--1--3----------------------------------------------------------|
E|------------------------------------------------------------------|

[Primeira Parte]

Dm7         Gm7       
I feel so unsure      
      Bb7M                Am7
As I take your hand and lead you to the dance floor
Dm                
As the music dies  
 Gm7                 
Something in your eyes     
 Bb7M
Calls to mind a silver screen
    Am7
And all it's sad goodbyes

[Refrão]

Dm                             
I'm never gonna dance again    
 Gm7                    
Guilty feet have got no rythm
  Bb7M                         
Though it's easy to pretend   
Am7
I know you're not a fool
  Dm
Should have known better 

Than to cheat a friend
     Gm7                 
And waste the chance that 
          
I've been given
 Bb7M                             
So I'm never gonna dance again   
  Am7                   Dm
The way I danced with you

[Solo]

   Dm Gm7      Am7     Bb7M             Am7         D5
E|---------------------------------------10--12--13--10------|
B|-----------------------------------10--------------------3-|
G|-10--9--10--------10--9--10/12-12-----------------------2--|
D|------------8------------------------------------------0---|
A|-----------------------------------------------------------|
E|-----------------------------------------------------------|

[Segunda Parte]

 Dm7            Gm7  
Time can never mend   
       Bb7M           Am7
The careless whispers of a good friend
 Dm                  
To the heart and mind    

E|-----------------------------------------------------------|
B|-----5--6--8--8/10--8p6------------------------------------|
G|--7---------------------7----------------------------------|
D|-----------------------------------------------------------|
A|-----------------------------------------------------------|
E|-----------------------------------------------------------|
              Gm7
Ignorance is kind

Am7   Bb7M                          Am7
    There's no comfort in the truth     

Pain is all you'll find

E|---------------10------------------------------------------|
B|-----------1-3-10------------------------------------------|
G|-------0-2-----10------------------------------------------|
D|-0-2-3-----------------------------------------------------|
A|-----------------------------------------------------------|
E|-----------------------------------------------------------|

[Refrão]

Dm                             
I'm never gonna dance again    
 Gm7                      Am7
Guilty feet have got no rhythm
  Bb7M                  Am7
Though it's easy to pretend    

I know you're not a fool

E|-----------------------------------------------------------|
B|-----------1-3---------------------------------------------|
G|-------0-2-------------------------------------------------|
D|-0-2-3-----------------------------------------------------|
A|-----------------------------------------------------------|
E|-----------------------------------------------------------|

  Dm
Should have known better than to cheat a friend

     Gm7                             Am7
And waste the chance that I've been given

 Bb7M                             
So I'm never gonna dance again   
 Am7                   Dm
The way I danced with you

[Solo] Dm  Gm7  Gm7/A  Bb7M  Am7 
       Dm  Gm7  Gm7/A  Bb7M  Am7 

[Ponte]

   Dm
Tonight the music seems so loud
   Gm
I wish that we could lose this crowd
 Bb7M
Maybe it's better this way
      Am7
We'd hurt each other with the things we want to say
    Dm
We could have been so good together,
    Gm7
We could have lived this dance forever
     Bb7M                        Am7
But now, who's gonna dance with me?

Please stay

[Refrão]

Dm                             
   I'm never gonna dance again    
  Gm7                     
Guilty feet have got no rhythm
  Bb7M                 
Though it's easy to pretend    
    Am7
I know you're not a fool

  Dm
Should have known better than to cheat a friend
     Gm7                              
And waste the chance that I've been given
Bb7M                             
     So I'm never gonna dance again   
     Am7          
The way I danced with you

[Final] Dm  Gm7  Gm7/A  Bb7M  Am7 
        Dm  Gm7  Gm7/A  Bb7M  Am7 
00:00 / 00:00
Otros videos de esta canción
Repetir
Otros videos de esta canción
Composición de Andrew Ridgeley / George Michael
Colaboración y revisión:
  • Gabriel Silva
  • Lucio Sousa
  • Bruno Zolini
46.658 vistas
    • ½ Tono
    • A
    • Bb
    • B
    • C
    • Db
    • D
    • Eb
    • E
    • F
    • F#
    • G
    • Ab
  • Agregar a la lista

    0 comentarios

    Ver todos los comentarios

    ¿Lograste tocar?

    48 Tocaron 11 Aún no

    ¡Graba un video tocando Careless Whisper y envíanoslo!

    00:00 / 00:00
    OK