Cifra Club

Vai Passar

Gerson Rufino

Tablatura: Principal (guitarra)
tono: A
[Intro]  A  E  E4  E

E
Tenho uma palavra pra você
           A  A4 A   A/G#
Não desanimes
F#m                     B              E   A B
Tudo que você pediu a Deus, já está vindo
E
Esses dias Deus te viu chorando
                A   A4 A   A/G#
No canto escondido
 F#m                  B
Você mal conseguia falar
                         E  E4 E
Deus só ouviu o teu gemido

[Pré-Refrão]

E                                       B/D#  B  G#m
Mas o Deus que me enviou aqui sabe de tudo
A                                       E  A B
Ele me mandou falar que vai mudar seu rumo
E                                     B/D#    B  G#m
Ele está enviando o consolo pra sua alma
A                                         E   A B
Enxugue essas lágrimas no rosto e tenha calma

[Refrão]
 
E4     E                                        B/D#
Vai passar, eu sei que essa luta logo vai passar
     B             G#m7   A/C#
Tá doendo, mas não vai querer parar
                          E                  G#7
Não deixe a esperança em você morrer Você precisa crer
E4    E                                  B/D#
Vai Chegar a solução pra tudo que te aconteceu
B                            A/C#
Você vai ter de volta o que você perdeu
                         E
Só não se desespere pelo amor de Deus

[Solo]  E  D5  A  E  A  B

           E
E|------------------------|
B|-------7--9b10--9-------|
G|-----9-------------9\4~-|
D|---9--------------------|
A|------------------------|
E|------------------------|

           D5
E|------------------------|
B|-------7--9b10--9-------|
G|-----9-------------9\4~-|
D|---9--------------------|
A|------------------------|
E|------------------------|

            A
E|---------------------------|
B|---9--10--12--10b12--10----|
G|------------------------9~-|
D|---------------------------|
A|---------------------------|
E|---------------------------|

       E                            A             B
E|-----------12~--\----14b16-16r14--12~--14--16--14~~\-|
B|--7--7-/12--------12---------------------------------|
G|---9-------------------------------------------------|
D|-----------------------------------------------------|
A|-----------------------------------------------------|
E|-----------------------------------------------------|
Composição de Pr. Lucas
Colaboración y revision:
6.158 reproducciones
    • ½ Tono
    • A
    • Bb
    • B
    • C
    • Db
    • D
    • Eb
    • E
    • F
    • F#
    • G
    • Ab
  • Adicionar à lista

    0 comentarios

    Ver todos os comentários
    00:00 / 00:00
    outros vídeos desta música
    repetir qualidade Automático
    Outros vídeos desta música
    00:00 / 00:00
    Automático
    OK