Cifra Club

Mary On a Cross

Ghost

Cifrado: Principal (guitarra y guitarra eléctrica)
Selo Cifra Club: esta cifra foi revisada para atender aos critérios oficiais da nossa Equipe de Qualidade.
tono: G#m
[Intro] Riff 1
        G#5  F#5  G#5  F#5  E5  B5  F#5

[Tab - Riff 1]

Parte 1 de 2
            G#5     F#5 G#5          F#5 E5 
E|------------------------------------------|
B|------------------------------------------|
G|------------------------------------------|
D|-------------6----4---6---6--6--6--4---2--|
A|---4---------6----4---6---6--6--6--4---2--|
E|-2---2-4--4-------------------------------|

Parte 2 de 2
   B5     F#5 
E|------------------------------------------|
B|------------------------------------------|
G|-4---4------------------------------------|
D|-4---4--4---------------------------------|
A|--------4---------------------------------|
E|------------------------------------------|

[Primeira Parte]

( Riff 1 )

(G#5  F#5  G#5  F#5  E5  B5  F#5)
We were speeding together
Down the dark avenues
But besides all the stardom
All we got was blues
But through all the sorrow
We've been riding high

[Segunda Parte]

( Riff 2 )

[Tab - Riff 2]

         C#5   E5          G#5         F#5
E|------------------------------------------|
B|------------------------------------------|
G|------------------------------------------|
D|-------6---6------------------------------|
A|---4---4---4-2-----2---2-6-----6---6-4----|
E|-2---2-------0-----0---0-4-----4---4-2----|

C#5  E5       
        And the truth of the matter is
         F#5     G#5         F#5
I never let you go, let you go

[Primeira Parte]

( Riff 1 )

(G#5  F#5  G#5  F#5  E5  B5  F#5)
We were scanning the cities
Rocking to pay their dues
But besides all the glamor
All we got was bruised
But through all the sorrow
We've been riding high

[Segunda Parte]

( Riff 2 )

C#5  E5       
        And the truth of the matter is
         F#5     G#5         F#5
I never let you go, let you go

[Ponte]

( Riff 3  E5 )

[Tab - Riff 3]

   E5 
E|------------------------------------------|
B|------------------------------------------|
G|------------------------------------------|
D|-9-9-9-9-9-9-9-9-9-9-9-9------------------|
A|-7-7-7-7-7-7-7-7-7-7-7-7---4--------------|
E|-------------------------2---2------------|
    P.M. . . . . . . . . .

[Refrão]

( Riff 4 )

[Tab - Riff 4]

Parte 1 de 2
   B5              G#5
E|------------------------------------------|
B|------------------------------------------|
G|------------------------------------------|
D|-4---x-4-4---4----------------------------|
A|-2---x-2-2---2---6---x-6-6---6------------|
E|-----------------4---x-4-4---4------------|

Parte 2 de 2
   D#5             F#5
E|------------------------------------------|
B|------------------------------------------|
G|------------------------------------------|
D|-8---X-8-8---8----------------------------|
A|-6---X-6-6---6---4---X-4-4---4------------|
E|-----------------2---X-2-2---2------------|

B5              G#5
   You go down just like Holy Mary
D#5            F#5 
    Mary on a,     Mary on a cross
B5            G#5
   Not just another Bloody Mary
D#5            F#5 
    Mary on a,     Mary on a cross

( Riff 5 )

[Tab - Riff 5]

Parte 1 de 4
   E5              B5
E|------------------------------------------|
B|------------------------------------------|
G|------------------------------------------|
D|-----------------4---x-4-4---4------------|
A|-2---x-2-2---2---2---x-2-2---2------------|
E|-0---x-0-0---0----------------------------|

Parte 2 de 4
   F#5             G#5     F#5
E|------------------------------------------|
B|------------------------------------------|
G|------------------------------------------|
D|------------------------------------------|
A|-4--x-4-4----4---6---x-6-4---x-4----------|
E|-2--x-2-2----2---4---x-4-2---x-2----------|

Parte 3 de 4
   E5              B5
E|------------------------------------------|
B|------------------------------------------|
G|------------------------------------------|
D|-----------------4---x-4-4---4------------|
A|-2---x-2-2---2---2---x-2-2---2------------|
E|-0---x-0-0---0----------------------------|
Parte 4 de 4
   F#5            
E|------------------------------------------|
B|------------------------------------------|
G|------------------------------------------|
D|------------------------------------------|
A|-4--x-4-4---x-4-4-------------------------|
E|-2--x-2-2---x-2-2-------------------------|

E5          B5            F#5
   If you choose to run away with me
       G#5     F#5   E5  
I will tickle you internally
    B5     F#5
And I see nothing wrong with that

( Riff 6 )
( G#5  F#5  E5  B5  F#5 )

[Tab - Riff 6]

         G#5      F#5 E5  B5    F#5
E|------------------------------------------|
B|------------------------------------------|
G|------------------------------------------|
D|------------------------4---4-------------|
A|---4---6----6---4---2---2---2-4-----4-----|
E|-2---2-4----4---2---0---------2---2---2-4-|

[Solo] Riff 7 G#5  B5  F#5

[Tab - Riff 7]

Parte 1 de 2
         G#5                          
E|------------------------------------------|
B|------------------------------------------|
G|------------------------------------------|
D|------------------------------------------|
A|---4---6-6-6-6-6-6-6-6-6-6-6-6-6-6-6------|
E|-2---2-4-4-4-4-4-4-4-4-4-4-4-4-4-4-4------|
          P.M. . . . . . . . . . . . .

Parte 2 de 2
   B5      F#5
E|------------------------------------------|
B|------------------------------------------|
G|------------------------------------------|
D|-4---x-4----------------------------------|
A|-2---x-2-4-4-4-4-4-4-4-4-4-4--------------|
E|---------2-2-2-2-2-2-2-2-2-2--------------|
          P.M. . . . . . . . .

[Tab - Solo]

Parte 1 de 2
E|-12-11h12p11----11------12-11h12p11----11------------|
B|-------------14---------------------14---------------|
G|-------------------13---------------------13---------|
D|-----------------------------------------------------|
A|-----------------------------------------------------|
E|-----------------------------------------------------|

Parte 2 de 2
E|-14--------------------------------------------------|
B|------14---12-11----12-11h12p11----------------------|
G|--------------------------------13-15-11-------------|
D|-----------------------------------------------------|
A|-----------------------------------------------------|
E|-----------------------------------------------------|

[Primeira Parte]

( Riff 1 )

(G#5  F#5  G#5  F#5  E5  B5  F#5)
We were searching for reasons
To play by the rules
But we quickly found out
It was just for fools
Now through all the sorrow
We'll be riding high

[Segunda Parte]

( Riff 2 )

C#5  E5
        And the truth of the matter is
         F#5     G#5         F#5
I never let you go, let you go

[Ponte 2]

( Riff 8  D#5  E5 )

[Tab - Riff 8]

Parte 1 de 2
   D#5             E5
E|------------------------------------------|
B|------------------------------------------|
G|------------------------------------------|
D|-8-8-8-8-8-8-8-8-9-9-9-9-9-9-9-9-9-9-9-9--|
A|-6-6-6-6-6-6-6-6-7-7-7-7-7-7-7-7-7-7-7-7--|
E|------------------------------------------|
    P.M. . . . . . . . . . . . . . . . . .

Parte 2 de 2
E|------------------------------------------|
B|------------------------------------------|
G|------------------------------------------|
D|-9-9-9-9-9-9-9-9--------------------------|
A|-7-7-7-7-7-7-7-7---4----------------------|
E|-----------------2---2--------------------|
  P.M. . . . . . . 

[Refrão]

( Riff 9 )

[Tab - Riff 9]

Parte 1 de 6
   B     G#m   D#m   F#
E|-7-----4-----6-----2----------------------|
B|-7-----4-----7-----2----------------------|
G|-8-----4-----8-----3----------------------|
D|-9-----6-----8-----4----------------------|
A|-9-----6-----6-----4----------------------|
E|-7-----4-----------2----------------------|

Parte 2 de 6
   B     G#m   D#m  F#5
E|-7-----4-----6----------------------------|
B|-7-----4-----7----------------------------|
G|-8-----4-----8----------------------------|
D|-9-----6-----8----------------------------|
A|-9-----6-----6-----4-4-4-4-4-4-4-4--------|
E|-7-----4-----------2-2-2-2-2-2-2-2--------|
                    P.M. . .

Parte 3 de 6
   G#5             E5
E|------------------------------------------|
B|------------------------------------------|
G|------------------------------------------|
D|------------------------------------------|
A|-6---x-6-6---6---2---x-2-2---2------------|
E|-4---x-4-4---4---0---x-0-0---0------------|

Parte 4 de 6
   B5              F#5    G5+       
E|------------------------------------------|
B|------------------------------------------|
G|------------------------------------------|
D|-4--x-4-4---4-----------------------------|
A|-2--x-2-2---2----4--x-4-6---x-6-----------|
E|-----------------2--x-2-3---x-3-----------|

Parte 5 de 6
   G#5             E5
E|------------------------------------------|
B|------------------------------------------|
G|------------------------------------------|
D|------------------------------------------|
A|-6---x-6-6---6---2---x-2-2---2------------|
E|-4---x-4-4---4---0---x-0-0---0------------|

Parte 6 de 6
   B5              F#5    G5+       
E|------------------------------------------|
B|------------------------------------------|
G|------------------------------------------|
D|-4--x-4-4---4-----------------------------|
A|-2--x-2-2---2----4--x-4-6---x-6-----------|
E|-----------------2--x-2-3---x-3-----------|

B              G#m
  You go down just like Holy Mary
D#m            F# 
    Mary on a,     Mary on a cross
B            G#m
  Not just another Bloody Mary
D#m            F#5 
    Mary on a,     Mary on a 

( Riff 9 )

G#5              E5
    You go down just like Holy Mary
B5            F#5      G5+
   Mary on a,     Mary on a cross
G#5              E5
    Your beauty never ever scared me
B5            F#5      G5+    
   Mary on a,     Mary on a cross

( Riff 10 )

[Tab - Riff 10]

Parte 1 de 4
   E5              B5
E|------------------------------------------|
B|------------------------------------------|
G|------------------------------------------|
D|-----------------4---x-4-4---4------------|
A|-2---x-2-2---2---2---x-2-2---2------------|
E|-0---x-0-0---0----------------------------|

Parte 2 de 4
   F#5             G#5     F#5
E|------------------------------------------|
B|------------------------------------------|
G|------------------------------------------|
D|------------------------------------------|
A|-4--x-4-4----4---6---x-6-4---x-4----------|
E|-2--x-2-2----2---4---x-4-2---x-2----------|

Parte 3 de 4
   E5              B5
E|------------------------------------------|
B|------------------------------------------|
G|------------------------------------------|
D|-----------------4---x-4-4---4------------|
A|-2---x-2-2---2---2---x-2-2---2------------|
E|-0---x-0-0---0----------------------------|

Parte 4 de 4
   F#5            
E|------------------------------------------|
B|------------------------------------------|
G|------------------------------------------|
D|------------------------------------------|
A|-4-4-4-4-4-4-4-4-4-4-4-4---4--------------|
E|-2-2-2-2-2-2-2-2-2-2-2-2-2---2------------|
    P.M. . . . . . . . . . 

E5          B5            F#5
   If you choose to run away with me
        G#5    F#5   E5  
I will tickle you internally
    B5     F#5
And I see nothing wrong with that

          F#5      G5+
Mary on a,    Mary on a cross
 G#5      E5         B5
Nothing wrong with that

          F#5      G5+
Mary on a,    Mary on a cross
 G#5      E5         B5
Nothing wrong with that
          F#5      G5+
Mary on a,    Mary on a cross

( G#5  E5  B5 )

          F#5      G5+    B5
Mary on a,    Mary on a cross

[Tab - Riff 11]

Parte 1 de 6
   G#5             E5
E|------------------------------------------|
B|------------------------------------------|
G|------------------------------------------|
D|------------------------------------------|
A|-6---x-6-6---6---2---x-2-2---2------------|
E|-4---x-4-4---4---0---x-0-0---0------------|

Parte 2 de 6
   B5              F#5    G5+       
E|------------------------------------------|
B|------------------------------------------|
G|------------------------------------------|
D|-4--x-4-4---4-----------------------------|
A|-2--x-2-2---2----4--x-4-6---x-6-----------|
E|-----------------2--x-2-3---x-3-----------|

Parte 3 de 6
   G#5             E5
E|------------------------------------------|
B|------------------------------------------|
G|------------------------------------------|
D|------------------------------------------|
A|-6---x-6-6---6---2---x-2-2---2------------|
E|-4---x-4-4---4---0---x-0-0---0------------|

Parte 4 de 6
   B5              F#5    G5+       
E|------------------------------------------|
B|------------------------------------------|
G|------------------------------------------|
D|-4--x-4-4---4-----------------------------|
A|-2--x-2-2---2----4--x-4-6---x-6-----------|
E|-----------------2--x-2-3---x-3-----------|

Parte 5 de 6
   G#5             E5
E|------------------------------------------|
B|------------------------------------------|
G|------------------------------------------|
D|------------------------------------------|
A|-6---x-6-6---6---2---x-2-2---2------------|
E|-4---x-4-4---4---0---x-0-0---0------------|

Parte 6 de 6
   B5              F#5    G5+       
E|------------------------------------------|
B|------------------------------------------|
G|------------------------------------------|
D|-4--x-4-4---4-----------------------------|
A|-2--x-2-2---2----4--x-4-6---x-6-----------|
E|-----------------2--x-2-3---x-3-----------|

Parte 7 de 8
   G#5             E5
E|------------------------------------------|
B|------------------------------------------|
G|------------------------------------------|
D|------------------------------------------|
A|-6---x-6-6---6---2---x-2-2---2------------|
E|-4---x-4-4---4---0---x-0-0---0------------|

Parte 8 de 8
   B5              F#5    B5       
E|------------------------------------------|
B|------------------------------------------|
G|------------------------------------------|
D|-4--x-4-4---4-----------4-----------------|
A|-2--x-2-2---2----4------2-----------------|
E|-----------------2------------------------|
Otros videos de esta canción
101.352 exhibiciones
  • Simplificar cifrado
    • ½ Tono
    • Am
    • Bbm
    • Bm
    • Cm
    • C#m
    • Dm
    • Ebm
    • Em
    • Fm
    • F#m
    • Gm
    • G#m
  • Agregar a la lista

Afinación de cifrado

Afinador online

    Capítulos
    • Apresentação
    • Tocando a Música
    • Tocando a Intro
    • Ensinando a Intro
    • Dicas da Primeira Parte
    • Tocando a Primeira e a Segunda Partes e a Ponte
    • Ensinando a Segunda Parte
    • Ensinando a Ponte
    • Tocando o Refrão
    • Dicas Sobre a Música
    • Ensinando o Refrão
    • Dicas Sobre a Passagem e o Solo da Múscia
    • Tocando a Passagem e o Solo
    • Ensinando a Passagem da Música
    • Ensinando o Solo da Música
    • Dicas da Continuação da Música
    • Tocando a Continuação da Música
    • Ensinando a Repetição da Segunda Parte
    • Ensinando a Repetição do Refrão
    • Tocando o Final da Música
    • Ensinando o Final da Música
    • Encerramento
    OK